  0
SECTION
  2
HEADER
  9
$ACADVER
  1
AC1009
  9
$INSBASE
 10
0.0
 20
0.0
 30
0.0
  9
$EXTMIN
 10
-33.783790977386467
 20
1.323301191833111
 30
0.0
  9
$EXTMAX
 10
-8.1720019817377878
 20
20.532649433104559
 30
0.0
  9
$LIMMIN
 10
0.0
 20
0.0
  9
$LIMMAX
 10
30.0
 20
20.0
  9
$ORTHOMODE
 70
     1
  9
$REGENMODE
 70
     1
  9
$FILLMODE
 70
     1
  9
$QTEXTMODE
 70
     0
  9
$MIRRTEXT
 70
     0
  9
$DRAGMODE
 70
     2
  9
$LTSCALE
 40
1.0
  9
$OSMODE
 70
    55
  9
$ATTMODE
 70
     1
  9
$TEXTSIZE
 40
0.5244619964034976
  9
$TRACEWID
 40
0.05
  9
$TEXTSTYLE
  7
SMOOTH
  9
$CLAYER
  8
DIM
  9
$CELTYPE
  6
BYLAYER
  9
$CECOLOR
 62
   256
  9
$DIMSCALE
 40
1.0
  9
$DIMASZ
 40
0.25
  9
$DIMEXO
 40
0.1875
  9
$DIMDLI
 40
0.375
  9
$DIMRND
 40
0.0
  9
$DIMDLE
 40
0.0
  9
$DIMEXE
 40
0.18
  9
$DIMTP
 40
0.0
  9
$DIMTM
 40
0.0
  9
$DIMTXT
 40
0.375
  9
$DIMCEN
 40
0.09
  9
$DIMTSZ
 40
0.0
  9
$DIMTOL
 70
     0
  9
$DIMLIM
 70
     0
  9
$DIMTIH
 70
     1
  9
$DIMTOH
 70
     1
  9
$DIMSE1
 70
     0
  9
$DIMSE2
 70
     0
  9
$DIMTAD
 70
     0
  9
$DIMZIN
 70
     0
  9
$DIMBLK
  1

  9
$DIMASO
 70
     0
  9
$DIMSHO
 70
     1
  9
$DIMPOST
  1

  9
$DIMAPOST
  1

  9
$DIMALT
 70
     0
  9
$DIMALTD
 70
     2
  9
$DIMALTF
 40
25.399999999999999
  9
$DIMLFAC
 40
1.0
  9
$DIMTOFL
 70
     0
  9
$DIMTVP
 40
0.0
  9
$DIMTIX
 70
     0
  9
$DIMSOXD
 70
     0
  9
$DIMSAH
 70
     0
  9
$DIMBLK1
  1

  9
$DIMBLK2
  1

  9
$DIMSTYLE
  2
STANDARD
  9
$DIMCLRD
 70
   256
  9
$DIMCLRE
 70
   256
  9
$DIMCLRT
 70
   256
  9
$DIMTFAC
 40
1.0
  9
$DIMGAP
 40
0.15625
  9
$LUNITS
 70
     4
  9
$LUPREC
 70
     4
  9
$SKETCHINC
 40
0.1
  9
$FILLETRAD
 40
0.0
  9
$AUNITS
 70
     0
  9
$AUPREC
 70
     8
  9
$MENU
  1
acad
  9
$ELEVATION
 40
0.0
  9
$PELEVATION
 40
0.0
  9
$THICKNESS
 40
0.0
  9
$LIMCHECK
 70
     0
  9
$BLIPMODE
 70
     0
  9
$CHAMFERA
 40
0.0
  9
$CHAMFERB
 40
0.0
  9
$SKPOLY
 70
     0
  9
$TDCREATE
 40
2449555.5145552089
  9
$TDUPDATE
 40
2458206.5626142249
  9
$TDINDWG
 40
15.1863816782
  9
$TDUSRTIMER
 40
15.1863816782
  9
$USRTIMER
 70
     1
  9
$ANGBASE
 50
0.0
  9
$ANGDIR
 70
     0
  9
$PDMODE
 70
     0
  9
$PDSIZE
 40
0.0
  9
$PLINEWID
 40
0.0
  9
$COORDS
 70
     1
  9
$SPLFRAME
 70
     0
  9
$SPLINETYPE
 70
     6
  9
$SPLINESEGS
 70
     8
  9
$ATTDIA
 70
     1
  9
$ATTREQ
 70
     1
  9
$HANDLING
 70
     1
  9
$HANDSEED
  5
53DEE
  9
$SURFTAB1
 70
     6
  9
$SURFTAB2
 70
     6
  9
$SURFTYPE
 70
     6
  9
$SURFU
 70
     6
  9
$SURFV
 70
     6
  9
$UCSNAME
  2

  9
$UCSORG
 10
0.0
 20
0.0
 30
0.0
  9
$UCSXDIR
 10
1.0
 20
0.0
 30
0.0
  9
$UCSYDIR
 10
0.0
 20
1.0
 30
0.0
  9
$PUCSNAME
  2

  9
$PUCSORG
 10
0.0
 20
0.0
 30
0.0
  9
$PUCSXDIR
 10
1.0
 20
0.0
 30
0.0
  9
$PUCSYDIR
 10
0.0
 20
1.0
 30
0.0
  9
$USERI1
 70
     0
  9
$USERI2
 70
     0
  9
$USERI3
 70
     0
  9
$USERI4
 70
     0
  9
$USERI5
 70
     0
  9
$USERR1
 40
0.0
  9
$USERR2
 40
0.0
  9
$USERR3
 40
0.0
  9
$USERR4
 40
0.0
  9
$USERR5
 40
0.0
  9
$WORLDVIEW
 70
     1
  9
$SHADEDGE
 70
     3
  9
$SHADEDIF
 70
    70
  9
$TILEMODE
 70
     1
  9
$MAXACTVP
 70
    16
  9
$PLIMCHECK
 70
     0
  9
$PEXTMIN
 10
1.0000000000000000E+020
 20
1.0000000000000000E+020
 30
1.0000000000000000E+020
  9
$PEXTMAX
 10
-1.0000000000000000E+020
 20
-1.0000000000000000E+020
 30
-1.0000000000000000E+020
  9
$PLIMMIN
 10
0.0
 20
0.0
  9
$PLIMMAX
 10
12.0
 20
9.0
  9
$UNITMODE
 70
     0
  9
$VISRETAIN
 70
     0
  9
$PLINEGEN
 70
     0
  9
$PSLTSCALE
 70
     0
  0
ENDSEC
  0
SECTION
  2
TABLES
  0
TABLE
  2
VPORT
 70
     1
  0
VPORT
  2
*ACTIVE
 70
     0
 10
0.0
 20
0.0
 11
1.0
 21
1.0
 12
-20.979088704931961
 22
10.928033655190101
 13
0.0
 23
0.0
 14
1.0
 24
1.0
 15
0.0
 25
0.0
 16
0.0
 26
0.0
 36
1.0
 17
0.0
 27
0.0
 37
0.0
 40
19.400060929483288
 41
2.1100628930817611
 42
50.0
 43
0.0
 44
0.0
 50
0.0
 51
0.0
 71
     0
 72
   100
 73
     1
 74
     0
 75
     0
 76
     0
 77
     0
 78
     0
  0
ENDTAB
  0
TABLE
  2
LTYPE
 70
     1
  0
LTYPE
  2
CONTINUOUS
 70
     0
  3
Solid line
 72
    65
 73
     0
 40
0.0
  0
ENDTAB
  0
TABLE
  2
LAYER
 70
     7
  0
LAYER
  2
0
 70
     0
 62
     7
  6
CONTINUOUS
  0
LAYER
  2
OBJ
 70
     0
 62
     7
  6
CONTINUOUS
  0
LAYER
  2
TITLE
 70
     0
 62
     7
  6
CONTINUOUS
  0
LAYER
  2
TITLE2
 70
     0
 62
     7
  6
CONTINUOUS
  0
LAYER
  2
DEFPOINTS
 70
     0
 62
     7
  6
CONTINUOUS
  0
LAYER
  2
DIM
 70
     0
 62
     7
  6
CONTINUOUS
  0
LAYER
  2
CONTOURS
 70
     0
 62
     7
  6
CONTINUOUS
  0
ENDTAB
  0
TABLE
  2
STYLE
 70
     5
  0
STYLE
  2
STANDARD
 70
     0
 40
0.0
 41
1.0
 50
0.0
 71
     0
 42
0.2
  3
TXT
  4

  0
STYLE
  2
SMOOTH
 70
     0
 40
0.0
 41
1.0
 50
0.0
 71
     0
 42
0.5244619964034976
  3
txt
  4

  0
STYLE
  2
SIMPLEX
 70
     0
 40
0.0
 41
1.0
 50
0.0
 71
     0
 42
0.01
  3
txt
  4

  0
STYLE
  2
GG
 70
     0
 40
0.0078125
 41
1.0
 50
0.0
 71
     0
 42
0.0078125
  3
txt
  4

  0
STYLE
  2
GGATT
 70
     0
 40
0.0
 41
1.0
 50
0.0
 71
     0
 42
0.0104166666666678
  3
txt
  4

  0
ENDTAB
  0
TABLE
  2
VIEW
 70
     0
  0
ENDTAB
  0
TABLE
  2
UCS
 70
     0
  0
ENDTAB
  0
TABLE
  2
APPID
 70
    25
  0
APPID
  2
ACAD
 70
     0
  0
APPID
  2
ACAD_DSTYLE_DIMTEXT_FILL
 70
     0
  0
APPID
  2
ACAECLAYERSTANDARD
 70
     0
  0
APPID
  2
ACAD_PSEXT
 70
     0
  0
APPID
  2
RAK
 70
     0
  0
APPID
  2
ACAD_MLEADERVER
 70
     0
  0
APPID
  2
MCAD_NO_VIS
 70
     0
  0
APPID
  2
ACAD_TEMP_GRAPHIC
 70
     0
  0
APPID
  2
AD_DRAW
 70
     0
  0
APPID
  2
ACATTRIBSERVICES
 70
     0
  0
APPID
  2
DESIGNERASSEMBLIES
 70
     0
  0
APPID
  2
ACADM_DIM_EDIT
 70
     0
  0
APPID
  2
AMDT_DM_ADJ
 70
     0
  0
APPID
  2
DCO15
 70
     0
  0
APPID
  2
ACAD_EXEMPT_FROM_CAD_STANDARDS
 70
     0
  0
APPID
  2
ACAD_NAV_VCDISPLAY
 70
     0
  0
APPID
  2
ACAD_DSTYLE_DIMARC_LENGTH_
 70
     0
  0
APPID
  2
ACADANNOPO
 70
     0
  0
APPID
  2
ACAD_DSTYLE_DIMJAG
 70
     0
  0
APPID
  2
ACAD_DSTYLE_DIMTALN
 70
     0
  0
APPID
  2
ACAD_DSTYLE_DIMRADIAL_EXTENSION
 70
     0
  0
APPID
  2
ACCMTRANSPARENCY
 70
     0
  0
APPID
  2
GRADIENTCOLOR1ACI
 70
     0
  0
APPID
  2
GRADIENTCOLOR2ACI
 70
     0
  0
APPID
  2
CONTENTBLOCKICON
 70
     0
  0
ENDTAB
  0
TABLE
  2
DIMSTYLE
 70
     1
  0
DIMSTYLE
  2
STANDARD
 70
     0
  3

  4

  5

  6

  7

 40
1.0
 41
0.25
 42
0.125
 43
0.38
 44
0.18
 45
0.0
 46
0.0
 47
0.0
 48
0.0
140
0.375
141
0.09
142
0.0
143
25.399999999999999
144
1.0
145
0.0
146
1.0
147
0.09375
 71
     0
 72
     0
 73
     1
 74
     1
 75
     0
 76
     0
 77
     0
 78
     0
170
     0
171
     2
172
     0
173
     0
174
     0
175
     0
176
   256
177
   256
178
   256
  0
ENDTAB
  0
ENDSEC
  0
SECTION
  2
BLOCKS
  0
BLOCK
  8
0
  2
$MODEL_SPACE
 70
     0
 10
0.0
 20
0.0
 30
0.0
  3
$MODEL_SPACE
  1

  0
ENDBLK
  5
36
  8
0
  0
BLOCK
 67
     1
  8
0
  2
$PAPER_SPACE
 70
     0
 10
0.0
 20
0.0
 30
0.0
  3
$PAPER_SPACE
  1

  0
ENDBLK
  5
34
 67
     1
  8
0
  0
BLOCK
  8
0
  2
TITLEBLOCK2018
 70
     2
 10
0.0
 20
0.0
 30
0.0
  3
TITLEBLOCK2018
  1

  0
TEXT
  5
519AE
  8
TITLE
 10
-15.5080855019004
 20
22.839227868014159
 30
0.0
 40
0.8923397010612436
  1
CATALOG SHAPE
 41
0.5000000000000098
  7
GG
  0
TEXT
  5
519AF
  8
TITLE
 10
-20.665040879633459
 20
22.84950118295238
 30
0.0
 40
0.9043244580165586
  1
.
 41
0.5000000000000098
  7
GG
  0
TEXT
  5
519B0
  8
TITLE
 10
-29.57102643300615
 20
22.50308034591276
 30
0.0
 40
0.2702390500332978
  1
Title
 41
0.800530503978795
  7
SIMPLEX
  0
POLYLINE
  5
519B1
  8
TITLE
 66
     1
 10
0.0
 20
0.0
 30
0.0
 40
0.064375
 41
0.064375
  0
VERTEX
  5
53663
  8
TITLE
 10
-33.757371477386471
 20
1.089099129173027
 30
0.0
  0
VERTEX
  5
53664
  8
TITLE
 10
-2.6182998452608821
 20
1.089099129173027
 30
0.0
  0
SEQEND
  5
53665
  8
TITLE
  0
POLYLINE
  5
519B2
  8
TITLE
 66
     1
 10
0.0
 20
0.0
 30
0.0
 40
0.064375
 41
0.064375
  0
VERTEX
  5
53666
  8
TITLE
 10
-2.6182998452608821
 20
1.089099129173027
 30
0.0
  0
VERTEX
  5
53667
  8
TITLE
 10
-2.6182998452608821
 20
24.42792617750569
 30
0.0
  0
SEQEND
  5
53668
  8
TITLE
  0
POLYLINE
  5
519B3
  8
TITLE
 66
     1
 10
0.0
 20
0.0
 30
0.0
 40
0.064375
 41
0.064375
  0
VERTEX
  5
53669
  8
TITLE
 10
-2.6182998452608821
 20
24.42792617750569
 30
0.0
  0
VERTEX
  5
5366A
  8
TITLE
 10
-33.757371477386471
 20
24.42792617750569
 30
0.0
  0
SEQEND
  5
5366B
  8
TITLE
  0
POLYLINE
  5
519B4
  8
TITLE
 66
     1
 10
0.0
 20
0.0
 30
0.0
 40
0.064375
 41
0.064375
  0
VERTEX
  5
5366C
  8
TITLE
 10
-33.757371477386471
 20
24.42792617750569
 30
0.0
  0
VERTEX
  5
5366D
  8
TITLE
 10
-33.757371477386471
 20
1.089099129173027
 30
0.0
  0
SEQEND
  5
5366E
  8
TITLE
  0
POLYLINE
  5
519B5
  8
TITLE
 66
     1
 10
0.0
 20
0.0
 30
0.0
 40
0.064375
 41
0.064375
  0
VERTEX
  5
5366F
  8
TITLE
 10
-8.4568757762866476
 20
24.42792617750569
 30
0.0
  0
VERTEX
  5
53670
  8
TITLE
 10
-8.4568757762866476
 20
1.089099129173027
 30
0.0
  0
SEQEND
  5
53671
  8
TITLE
  0
LINE
  5
519B6
  8
TITLE
 10
-8.4568757762866476
 20
21.516831973353781
 30
0.0
 11
-2.6182998452608821
 21
21.516831973353781
 31
0.0
  0
LINE
  5
519B7
  8
TITLE
 10
-8.4568757762866476
 20
19.762367964026559
 30
0.0
 11
-2.6182998452608821
 21
19.762367964026559
 31
0.0
  0
LINE
  5
519B8
  8
TITLE
 10
-8.4568757762866476
 20
17.938885741967919
 30
0.0
 11
-2.6182998452608821
 21
17.938885741967919
 31
0.0
  0
LINE
  5
519B9
  8
TITLE
 10
-8.4568757762866476
 20
17.209547396707599
 30
0.0
 11
-2.6182998452608821
 21
17.209547396707599
 31
0.0
  0
LINE
  5
519BA
  8
TITLE
 10
-8.4568757762866476
 20
16.480209051447272
 30
0.0
 11
-2.6182998452608821
 21
16.480209051447272
 31
0.0
  0
LINE
  5
519BB
  8
TITLE
 10
-8.4568757762866476
 20
15.75087070618695
 30
0.0
 11
-2.6182998452608821
 21
15.75087070618695
 31
0.0
  0
LINE
  5
519BC
  8
TITLE
 10
-8.4568757762866476
 20
15.02153236092663
 30
0.0
 11
-2.6182998452608821
 21
15.02153236092663
 31
0.0
  0
LINE
  5
519BD
  8
TITLE
 10
-8.4568757762866476
 20
14.292194015666309
 30
0.0
 11
-2.6182998452608821
 21
14.292194015666309
 31
0.0
  0
LINE
  5
519BE
  8
TITLE
 10
-8.4568757762866476
 20
13.562855670405989
 30
0.0
 11
-2.6182998452608821
 21
13.562855670405989
 31
0.0
  0
LINE
  5
519BF
  8
TITLE
 10
-8.4568757762866476
 20
12.557444474219951
 30
0.0
 11
-2.6182998452608821
 21
12.557444474219951
 31
0.0
  0
LINE
  5
519C0
  8
TITLE
 10
-8.4568757762866476
 20
11.828106128959631
 30
0.0
 11
-2.6182998452608821
 21
11.828106128959631
 31
0.0
  0
LINE
  5
519C1
  8
TITLE
 10
-8.4568757762866476
 20
11.09876778369931
 30
0.0
 11
-2.6182998452608821
 21
11.09876778369931
 31
0.0
  0
LINE
  5
519C2
  8
TITLE
 10
-8.4568757762866476
 20
9.6400910931786612
 30
0.0
 11
-2.6182998452608821
 21
9.6400910931786612
 31
0.0
  0
LINE
  5
519C3
  8
TITLE
 10
-8.4568757762866476
 20
8.910752747918341
 30
0.0
 11
-2.6182998452608821
 21
8.910752747918341
 31
0.0
  0
LINE
  5
519C4
  8
TITLE
 10
-8.4568757762866476
 20
8.1814144026580191
 30
0.0
 11
-2.6182998452608821
 21
8.1814144026580191
 31
0.0
  0
LINE
  5
519C5
  8
TITLE
 10
-8.4568757762866476
 20
7.4520760573976954
 30
0.0
 11
-2.6182998452608821
 21
7.4520760573976954
 31
0.0
  0
LINE
  5
519C6
  8
TITLE
 10
-8.4568757762866476
 20
6.7227377121373726
 30
0.0
 11
-2.6182998452608821
 21
6.7227377121373726
 31
0.0
  0
POLYLINE
  5
519C7
  8
TITLE
 66
     1
 10
0.0
 20
0.0
 30
0.0
 40
0.064375
 41
0.064375
  0
VERTEX
  5
53672
  8
TITLE
 10
-8.4568757762866476
 20
5.9933993668768384
 30
0.0
  0
VERTEX
  5
53673
  8
TITLE
 10
-2.6182998452608821
 20
5.9933993668768384
 30
0.0
  0
SEQEND
  5
53674
  8
TITLE
  0
TEXT
  5
519C8
  8
TITLE
 10
-8.2136017791606992
 20
21.152162800723609
 30
0.0
 40
0.233388270483323
  1
DRAWING:
 41
0.6671087533156612
  7
GG
  0
TEXT
  5
519C9
  8
TITLE
 10
-8.2136017791606992
 20
19.329652666168229
 30
0.0
 40
0.233388270483323
  1
PROJECT:
 41
0.6671087533156612
  7
GG
  0
TEXT
  5
519CA
  8
TITLE
 10
-8.2136017791606992
 20
17.574216569337761
 30
0.0
 40
0.2333882704833194
  1
PAGE:
 41
0.6671087533156717
  7
GG
  0
TEXT
  5
519CB
  8
TITLE
 10
-5.6073411886106683
 20
17.574216569337761
 30
0.0
 40
0.2333882704833194
  1
DATE:
 41
0.6671087533156714
  7
GG
  0
TEXT
  5
519CC
  8
TITLE
 10
-8.2136017791606992
 20
16.84487822407743
 30
0.0
 40
0.233388270483323
  1
ARCHITECT:
 41
0.6671087533156612
  7
GG
  0
TEXT
  5
519CD
  8
TITLE
 10
-8.2136017791606992
 20
16.11553987881712
 30
0.0
 40
0.2333882704833212
  1
CUSTOMER:
 41
0.6671087533156664
  7
GG
  0
TEXT
  5
519CE
  8
TITLE
 10
-8.2136017791606992
 20
15.38620153355679
 30
0.0
 40
0.2333882704833212
  1
SALES REP:
 41
0.6671087533156664
  7
GG
  0
TEXT
  5
519CF
  8
TITLE
 10
-8.2136017791606992
 20
14.65686318829647
 30
0.0
 40
0.2333882704833212
  1
SALES OFFICE:
 41
0.6671087533156664
  7
GG
  0
TEXT
  5
519D0
  8
TITLE
 10
-8.2136017791606992
 20
13.92752484303614
 30
0.0
 40
0.233388270483323
  1
PLANT:
 41
0.6671087533156612
  7
GG
  0
TEXT
  5
519D1
  8
TITLE
 10
-8.2136017791606992
 20
13.19818649777582
 30
0.0
 40
0.2333882704833212
  1
BRICK NAME:
 41
0.6671087533156664
  7
GG
  0
TEXT
  5
519D2
  8
TITLE
 10
-8.2136017791606992
 20
12.192775301589791
 30
0.0
 40
0.2333882704833212
  1
BRICK TYPE:
 41
0.6671087533156664
  7
GG
  0
TEXT
  5
519D3
  8
TITLE
 10
-8.2136017791606992
 20
11.46343695632947
 30
0.0
 40
0.2333882704833212
  1
TEXTURE:
 41
0.6671087533156664
  7
GG
  0
TEXT
  5
519D4
  8
TITLE
 10
-8.2136017791606992
 20
9.2754219205485011
 30
0.0
 40
0.2333882704833212
  1
CORING:
 41
0.6671087533156664
  7
GG
  0
TEXT
  5
519D5
  8
TITLE
 10
-8.2136017791606992
 20
8.5460835752881792
 30
0.0
 40
0.2333882704833212
  1
SIZE:
 41
0.8005305039787968
  7
SIMPLEX
  0
TEXT
  5
519D6
  8
TITLE
 10
-5.5945121978335273
 20
8.5460835752881792
 30
0.0
 40
0.2333882704833212
  1
BOND:
 41
0.8005305039787968
  7
SIMPLEX
  0
TEXT
  5
519D7
  8
TITLE
 10
-8.2136017791606992
 20
7.8167452300278573
 30
0.0
 40
0.2333882704833221
  1
ASTM STANDARD:
 41
0.8005305039787938
  7
SIMPLEX
  0
TEXT
  5
519D8
  8
TITLE
 10
-8.2136017791606992
 20
7.0874068847675344
 30
0.0
 40
0.2333882704833221
  1
COMPUTER FILE:
 41
0.8005305039787938
  7
SIMPLEX
  0
TEXT
  5
519D9
  8
TITLE
 10
-8.2136017791606992
 20
6.3580685395072098
 30
0.0
 40
0.2333882704833221
  1
DRAWN BY:
 41
0.8005305039787938
  7
SIMPLEX
  0
TEXT
  5
519DA
  8
TITLE
 10
-8.1819323313537815
 20
10.78160029004715
 30
0.0
 40
0.2333882704833212
  1
NUMBER OF
 41
0.8005305039787968
  7
SIMPLEX
  0
TEXT
  5
519DB
  8
TITLE
 10
-8.1254847719344951
 20
10.443197090522339
 30
0.0
 40
0.233388270483323
  1
FINISHED FACES:
 41
0.8005305039787904
  7
SIMPLEX
  0
TEXT
  5
519DC
  8
TITLE
 10
-8.3515441957258254
 20
5.623390379414321
 30
0.0
 40
0.2567270975316337
  1
This document is the property 
 41
0.8005305039787934
  7
SIMPLEX
  0
TEXT
  5
519DD
  8
TITLE
 10
-8.3515441957258254
 20
5.1255361282437493
 30
0.0
 40
0.2567270975316355
  1
of GLEN-GERY CORPORATION and
 41
0.8005305039787876
  7
SIMPLEX
  0
TEXT
  5
519DE
  8
TITLE
 10
-8.3515441957258254
 20
4.6996163523143757
 30
0.0
 40
0.2567270975316355
  1
may not be reproduced without
 41
0.8005305039787876
  7
SIMPLEX
  0
TEXT
  5
519DF
  8
TITLE
 10
-8.3515441957258254
 20
4.2377293387644093
 30
0.0
 40
0.2567270975316318
  1
written permission from the
 41
0.8005305039787991
  7
SIMPLEX
  0
TEXT
  5
519E0
  8
TITLE
 10
-8.3515441957258254
 20
3.7933399002731081
 30
0.0
 40
0.2567270975316337
  1
appropriate Glen-Gery 
 41
0.8005305039787934
  7
SIMPLEX
  0
TEXT
  5
519E1
  8
TITLE
 10
-8.3515441957258254
 20
3.3683922118469991
 30
0.0
 40
0.2567270975316337
  1
Representative. The contents 
 41
0.8005305039787934
  7
SIMPLEX
  0
TEXT
  5
519E2
  8
TITLE
 10
-8.3515441957258254
 20
2.943444523420891
 30
0.0
 40
0.2567270975316337
  1
of this document are advisory 
 41
0.8005305039787934
  7
SIMPLEX
  0
TEXT
  5
519E3
  8
TITLE
 10
-8.3515441957258254
 20
2.517524747491525
 30
0.0
 40
0.2567270975316337
  1
only. Responsibility for 
 41
0.8005305039787934
  7
SIMPLEX
  0
TEXT
  5
519E4
  8
TITLE
 10
-8.3515441957258254
 20
2.110074634124087
 30
0.0
 40
0.2567270975316337
  1
accuracy and applicability lies 
 41
0.8005305039787934
  7
SIMPLEX
  0
TEXT
  5
519E5
  8
TITLE
 10
-8.3268928293692142
 20
1.6306900455154449
 30
0.0
 40
0.2567270975316337
  1
entirely with the Project 
 41
0.8005305039787938
  7
SIMPLEX
  0
TEXT
  5
519E6
  8
TITLE
 10
-8.3515441957258254
 20
1.2417095947099399
 30
0.0
 40
0.2567270975316337
  1
Designer and/or Owner.
 41
0.8005305039787934
  7
SIMPLEX
  0
TEXT
  5
519E7
  8
TITLE
 10
-33.589233693619683
 20
22.53503235919726
 30
0.0
 40
0.2567270975316355
  1
Signature
 41
0.8005305039787874
  7
SIMPLEX
  0
TEXT
  5
519E8
  8
TITLE
 10
-33.652039896825642
 20
23.560062938872601
 30
0.0
 40
0.2917353381041299
  1
faces, and specifications and I agree to them.
 41
0.8005305039787916
  7
SIMPLEX
  0
TEXT
  5
519E9
  8
TITLE
 10
-33.652039896825642
 20
24.05791719004317
 30
0.0
 40
0.2917353381041263
  1
This drawing has been reviewed for dimensions,
 41
0.8005305039788017
  7
SIMPLEX
  0
LINE
  5
519EA
  8
TITLE
 10
-33.726699250059887
 20
22.838521489005618
 30
0.0
 11
-23.814614652752169
 21
22.838521489005618
 31
0.0
  0
TEXT
  5
519EB
  8
TITLE
 10
-26.179633573930641
 20
22.53503235919726
 30
0.0
 40
0.2567270975316355
  1
Date
 41
0.8005305039787879
  7
SIMPLEX
  0
POLYLINE
  5
519EC
  8
TITLE
 66
     1
 10
0.0
 20
0.0
 30
0.0
 40
0.064375
 41
0.064375
  0
VERTEX
  5
53675
  8
TITLE
 10
-33.757371477386471
 20
22.369781862573198
 30
0.0
  0
VERTEX
  5
53676
  8
TITLE
 10
-23.814614652752169
 20
22.369781862573198
 30
0.0
  0
SEQEND
  5
53677
  8
TITLE
  0
POLYLINE
  5
519ED
  8
TITLE
 66
     1
 10
0.0
 20
0.0
 30
0.0
 40
0.064375
 41
0.064375
  0
VERTEX
  5
53678
  8
TITLE
 10
-23.814614652752169
 20
22.369781862573198
 30
0.0
  0
VERTEX
  5
53679
  8
TITLE
 10
-23.814614652752169
 20
24.42792617750569
 30
0.0
  0
SEQEND
  5
5367A
  8
TITLE
  0
TEXT
  5
519EE
  8
TITLE
 10
-8.2136017791606992
 20
10.004760265808819
 30
0.0
 40
0.233388270483323
  1
TEXTURE DIRECTION:
 41
0.6671087533156612
  7
GG
  0
LINE
  5
519EF
  8
TITLE
 10
-8.4568757762866476
 20
10.36942943843898
 30
0.0
 11
-2.6182998452608821
 21
10.36942943843898
 31
0.0
  0
POLYLINE
  5
519F0
  8
TITLE
 66
     1
 10
0.0
 20
0.0
 30
0.0
 40
0.064375
 41
0.064375
  0
VERTEX
  5
5367B
  8
TITLE
 10
-23.814614652752169
 20
22.369781862573198
 30
0.0
  0
VERTEX
  5
5367C
  8
TITLE
 10
-16.491537129062579
 20
22.369781862573198
 30
0.0
  0
SEQEND
  5
5367D
  8
TITLE
  0
LINE
  5
519F1
  8
TITLE
 10
-16.491537129062579
 20
22.369781862573198
 30
0.0
 11
-16.491537129062579
 21
24.42792617750569
 31
0.0
  0
TEXT
  5
519F2
  8
TITLE
 10
-23.533946274646311
 20
23.00930532082182
 30
0.0
 40
0.7001648114499104
  1
Qty :
 41
0.8005305039787931
  7
SIMPLEX
  0
LINE
  5
519F3
  8
TITLE
 10
-21.128102672234618
 20
22.742173676513961
 30
0.0
 11
-16.76655935776051
 21
22.742173676513961
 31
0.0
  0
ATTDEF
  5
519F6
  8
TITLE2
 10
-8.0531348495600241
 20
20.605159041778379
 30
0.0
 40
0.364669172630178
  1
N/A
 41
0.8005305039787987
  7
GGATT
  3
Drawing Title [line 1 of 2]:
  2
DWG1
 70
     0
  0
ATTDEF
  5
519F7
  8
TITLE2
 10
-8.0531348495600241
 20
19.997377087394771
 30
0.0
 40
0.364669172630178
  1
N/A
 41
0.8005305039787987
  7
GGATT
  3
Drawing Title [line 2 of 2]:
  2
DWG2
 70
     0
  0
ATTDEF
  5
519F8
  8
TITLE2
 10
-8.0531348495600241
 20
18.782648907222988
 30
0.0
 40
0.3646691726301817
  1
N/A
 41
0.8005305039787907
  7
GGATT
  3
PROJECT Name [line 1 of 2]:
  2
PROJ1
 70
     0
  0
ATTDEF
  5
519F9
  8
TITLE2
 10
-8.0531348495600241
 20
18.174866952839391
 30
0.0
 40
0.3646691726301817
  1
N/A
 41
0.8005305039787907
  7
GGATT
  3
PROJECT Name [line 2 of 2]:
  2
PROJ2
 70
     0
  0
ATTDEF
  5
519FA
  8
TITLE2
 10
-7.2400289630169432
 20
17.452660178461471
 30
0.0
 40
0.2431127817534672
  1
1 of 1
 41
0.8005305039787947
  7
GGATT
  3
PAGE NO. 
  2
PAGE
 70
     0
  0
ATTDEF
  5
519FB
  8
TITLE2
 10
-4.6465973632439086
 20
17.452660178461471
 30
0.0
 40
0.2431127817534672
  1
N/A
 41
0.8005305039787943
  7
GGATT
  3
DATE [DDMMMYY]:
  2
DATE
 70
     0
  0
ATTDEF
  5
519FC
  8
TITLE2
 10
-6.4591596990101721
 20
16.723321833201119
 30
0.0
 40
0.2431127817534691
  1
N/A
 41
0.8005305039787886
  7
GGATT
  3
DESIGN FIRM NAME:
  2
ARCH
 70
     0
  0
ATTDEF
  5
519FD
  8
TITLE2
 10
-6.4591596990101721
 20
15.993983487940779
 30
0.0
 40
0.2431127817534691
  1
N/A
 41
0.8005305039787886
  7
GGATT
  3
CUSTOMER NAME:
  2
CUST
 70
     0
  0
ATTDEF
  5
519FE
  8
TITLE2
 10
-6.4591596990101721
 20
15.26464514268041
 30
0.0
 40
0.2431127817534691
  1
N/A
 41
0.8005305039787886
  7
GGATT
  3
SALES REPRESENTATIVE:
  2
REP
 70
     0
  0
ATTDEF
  5
519FF
  8
TITLE2
 10
-6.134794369508878
 20
14.535306797420059
 30
0.0
 40
0.2431127817534691
  1
N/A
 41
0.8005305039787886
  7
GGATT
  3
PRIMARY SALES OFFICE:
  2
OFFICE
 70
     0
  0
ATTDEF
  5
51A00
  8
TITLE2
 10
-6.8350491287794064
 20
13.805968452159711
 30
0.0
 40
0.2431127817534691
  1
N/A
 41
0.8005305039787959
  7
GGATT
  3
BRICK PRODUCED AT WHAT PLANT ?
  2
PLANT
 70
     0
  0
ATTDEF
  5
51A01
  8
TITLE2
 10
-7.8941287090322687
 20
12.67613005555644
 30
0.0
 40
0.3640857019539519
  1
N/A
 41
0.800530503978797
  7
GGATT
  3
BRICK NAME:
  2
BRICK
 70
     0
  0
ATTDEF
  5
51A02
  8
TITLE2
 10
-6.5720548178487119
 20
12.071218910713309
 30
0.0
 40
0.2431127817534691
  1
N/A
 41
0.8005305039787963
  7
GGATT
  3
MOLDED, EXTRUDED, HANDMADE OR REPRESSED?
  2
PROCESS
 70
     0
  0
ATTDEF
  5
51A03
  8
TITLE2
 10
-4.6258628408409841
 20
12.071218910713309
 30
0.0
 40
0.2431127817534691
  1
N/A
 41
0.8005305039787959
  7
GGATT
  3
FLASHED OR CLEARBURN?
  2
BURN
 70
     0
  0
ATTDEF
  5
51A04
  8
TITLE2
 10
-6.8350491287794064
 20
11.34188056545297
 30
0.0
 40
0.2431127817534691
  1
N/A
 41
0.8005305039787959
  7
GGATT
  3
TEXTURE FOR FINISHED FACES?
  2
TEXT
 70
     0
  0
ATTDEF
  5
51A05
  8
TITLE2
 10
-4.8888571517716954
 20
10.612542220192619
 30
0.0
 40
0.2431127817534709
  1
N/A
 41
0.8005305039787897
  7
GGATT
  3
TOTAL NO. OF FINISHED FACES PER UNIT?
  2
FACE
 70
     0
  0
ATTDEF
  5
51A06
  8
TITLE2
 10
-6.8350491287794064
 20
9.1538655296719522
 30
0.0
 40
0.24311278175347
  1
PLANT OPTION
 41
0.8005305039787929
  7
GGATT
  3
AS SHOWN/UNCORED/PLANT OPTION?
  2
CORING
 70
     0
  0
ATTDEF
  5
51A07
  8
TITLE2
 10
-7.1594144582806889
 20
8.4245271844116036
 30
0.0
 40
0.24311278175347
  1
N/A
 41
0.8005305039787929
  7
GGATT
  3
SIZE OF SURROUNDING BRICK?
  2
SIZE
 70
     0
  0
ATTDEF
  5
51A08
  8
TITLE2
 10
-4.5644918222704121
 20
8.4245271844116036
 30
0.0
 40
0.24311278175347
  1
N/A
 41
0.8005305039787929
  7
GGATT
  3
BOND PATTERN OF SURROUNDING BRICKWORK?
  2
BOND
 70
     0
  0
ATTDEF
  5
51A09
  8
TITLE2
 10
-5.3986184360624421
 20
7.6951888391512613
 30
0.0
 40
0.2431127817534672
  1
C216, FBS, SW
 41
0.8005305039787939
  7
GGATT
  3
ENTER THE ASTM STANDARD ?
  2
ASTM
 70
     0
  0
ATTDEF
  5
51A0A
  8
TITLE2
 10
-5.38301550997038
 20
6.9658504938909109
 30
0.0
 40
0.2431127817534672
  1
N/A
 41
0.8005305039787943
  7
GGATT
  3
COMPUTER FILE [INCLUDE PATH AND DRIVE]:
  2
FILE
 70
     0
  0
ATTDEF
  5
51A0B
  8
TITLE2
 10
-6.1217572415722472
 20
6.2365121486305677
 30
0.0
 40
0.2431127817534672
  1
N/A
 41
0.8005305039787947
  7
GGATT
  3
DRAWN BY:
  2
BY
 70
     0
  0
ATTDEF
  5
51A0C
  8
TITLE2
 10
-5.5583678395734921
 20
9.8530691623312308
 30
0.0
 40
0.2431127817534691
  1
PLANT OPTION
 41
0.8005305039787959
  7
GGATT
  3
AS SHOWN/PLANT OPTION?
  2
TEXTURE
 70
     0
  0
ENDBLK
  5
519AD
  8
0
  0
BLOCK
  8
0
  2
TITLEBLOCK-2018
 70
     2
 10
0.0
 20
0.0
 30
0.0
  3
TITLEBLOCK-2018
  1

  0
TEXT
  5
530A3
  8
TITLE
 10
-20.665040879633459
 20
22.84950118295238
 30
0.0
 40
0.9043244580165586
  1
.
 41
0.5000000000000098
  7
GG
  0
TEXT
  5
530A4
  8
TITLE
 10
-29.57102643300615
 20
22.50308034591276
 30
0.0
 40
0.2702390500332978
  1
Title
 41
0.800530503978795
  7
SIMPLEX
  0
POLYLINE
  5
530A5
  8
TITLE
 66
     1
 10
0.0
 20
0.0
 30
0.0
 40
0.064375
 41
0.064375
  0
VERTEX
  5
5367F
  8
TITLE
 10
-33.757371477386471
 20
1.089099129173027
 30
0.0
  0
VERTEX
  5
53680
  8
TITLE
 10
-2.6182998452608821
 20
1.089099129173027
 30
0.0
  0
SEQEND
  5
53681
  8
TITLE
  0
POLYLINE
  5
530A6
  8
TITLE
 66
     1
 10
0.0
 20
0.0
 30
0.0
 40
0.064375
 41
0.064375
  0
VERTEX
  5
53682
  8
TITLE
 10
-2.6182998452608821
 20
1.089099129173027
 30
0.0
  0
VERTEX
  5
53683
  8
TITLE
 10
-2.6182998452608821
 20
24.42792617750569
 30
0.0
  0
SEQEND
  5
53684
  8
TITLE
  0
POLYLINE
  5
530A7
  8
TITLE
 66
     1
 10
0.0
 20
0.0
 30
0.0
 40
0.064375
 41
0.064375
  0
VERTEX
  5
53685
  8
TITLE
 10
-2.6182998452608821
 20
24.42792617750569
 30
0.0
  0
VERTEX
  5
53686
  8
TITLE
 10
-33.757371477386471
 20
24.42792617750569
 30
0.0
  0
SEQEND
  5
53687
  8
TITLE
  0
POLYLINE
  5
530A8
  8
TITLE
 66
     1
 10
0.0
 20
0.0
 30
0.0
 40
0.064375
 41
0.064375
  0
VERTEX
  5
53688
  8
TITLE
 10
-33.757371477386471
 20
24.42792617750569
 30
0.0
  0
VERTEX
  5
53689
  8
TITLE
 10
-33.757371477386471
 20
1.089099129173027
 30
0.0
  0
SEQEND
  5
5368A
  8
TITLE
  0
POLYLINE
  5
530A9
  8
TITLE
 66
     1
 10
0.0
 20
0.0
 30
0.0
 40
0.064375
 41
0.064375
  0
VERTEX
  5
5368B
  8
TITLE
 10
-8.4568757762866476
 20
24.42792617750569
 30
0.0
  0
VERTEX
  5
5368C
  8
TITLE
 10
-8.4568757762866476
 20
1.089099129173027
 30
0.0
  0
SEQEND
  5
5368D
  8
TITLE
  0
LINE
  5
530AA
  8
TITLE
 10
-8.4568757762866476
 20
21.516831973353781
 30
0.0
 11
-2.6182998452608821
 21
21.516831973353781
 31
0.0
  0
LINE
  5
530AB
  8
TITLE
 10
-8.4568757762866476
 20
19.762367964026559
 30
0.0
 11
-2.6182998452608821
 21
19.762367964026559
 31
0.0
  0
LINE
  5
530AC
  8
TITLE
 10
-8.4568757762866476
 20
17.938885741967919
 30
0.0
 11
-2.6182998452608821
 21
17.938885741967919
 31
0.0
  0
LINE
  5
530AD
  8
TITLE
 10
-8.4568757762866476
 20
17.209547396707599
 30
0.0
 11
-2.6182998452608821
 21
17.209547396707599
 31
0.0
  0
LINE
  5
530AE
  8
TITLE
 10
-8.4568757762866476
 20
16.480209051447272
 30
0.0
 11
-2.6182998452608821
 21
16.480209051447272
 31
0.0
  0
LINE
  5
530AF
  8
TITLE
 10
-8.4568757762866476
 20
15.75087070618695
 30
0.0
 11
-2.6182998452608821
 21
15.75087070618695
 31
0.0
  0
LINE
  5
530B0
  8
TITLE
 10
-8.4568757762866476
 20
15.02153236092663
 30
0.0
 11
-2.6182998452608821
 21
15.02153236092663
 31
0.0
  0
LINE
  5
530B1
  8
TITLE
 10
-8.4568757762866476
 20
14.292194015666309
 30
0.0
 11
-2.6182998452608821
 21
14.292194015666309
 31
0.0
  0
LINE
  5
530B2
  8
TITLE
 10
-8.4568757762866476
 20
13.562855670405989
 30
0.0
 11
-2.6182998452608821
 21
13.562855670405989
 31
0.0
  0
LINE
  5
530B3
  8
TITLE
 10
-8.4568757762866476
 20
12.557444474219951
 30
0.0
 11
-2.6182998452608821
 21
12.557444474219951
 31
0.0
  0
LINE
  5
530B4
  8
TITLE
 10
-8.4568757762866476
 20
11.828106128959631
 30
0.0
 11
-2.6182998452608821
 21
11.828106128959631
 31
0.0
  0
LINE
  5
530B5
  8
TITLE
 10
-8.4568757762866476
 20
11.09876778369931
 30
0.0
 11
-2.6182998452608821
 21
11.09876778369931
 31
0.0
  0
LINE
  5
530B6
  8
TITLE
 10
-8.4568757762866476
 20
9.6400910931786612
 30
0.0
 11
-2.6182998452608821
 21
9.6400910931786612
 31
0.0
  0
LINE
  5
530B7
  8
TITLE
 10
-8.4568757762866476
 20
8.910752747918341
 30
0.0
 11
-2.6182998452608821
 21
8.910752747918341
 31
0.0
  0
LINE
  5
530B8
  8
TITLE
 10
-8.4568757762866476
 20
8.1814144026580191
 30
0.0
 11
-2.6182998452608821
 21
8.1814144026580191
 31
0.0
  0
LINE
  5
530B9
  8
TITLE
 10
-8.4568757762866476
 20
7.4520760573976954
 30
0.0
 11
-2.6182998452608821
 21
7.4520760573976954
 31
0.0
  0
LINE
  5
530BA
  8
TITLE
 10
-8.4568757762866476
 20
6.7227377121373726
 30
0.0
 11
-2.6182998452608821
 21
6.7227377121373726
 31
0.0
  0
POLYLINE
  5
530BB
  8
TITLE
 66
     1
 10
0.0
 20
0.0
 30
0.0
 40
0.064375
 41
0.064375
  0
VERTEX
  5
5368E
  8
TITLE
 10
-8.4568757762866476
 20
5.9933993668768384
 30
0.0
  0
VERTEX
  5
5368F
  8
TITLE
 10
-2.6182998452608821
 20
5.9933993668768384
 30
0.0
  0
SEQEND
  5
53690
  8
TITLE
  0
TEXT
  5
530BC
  8
TITLE
 10
-8.2136017791606992
 20
21.152162800723609
 30
0.0
 40
0.233388270483323
  1
DRAWING:
 41
0.6671087533156612
  7
GG
  0
TEXT
  5
530BD
  8
TITLE
 10
-8.2136017791606992
 20
19.329652666168229
 30
0.0
 40
0.233388270483323
  1
PROJECT:
 41
0.6671087533156612
  7
GG
  0
TEXT
  5
530BE
  8
TITLE
 10
-8.2136017791606992
 20
17.574216569337761
 30
0.0
 40
0.2333882704833194
  1
PAGE:
 41
0.6671087533156717
  7
GG
  0
TEXT
  5
530BF
  8
TITLE
 10
-5.6073411886106683
 20
17.574216569337761
 30
0.0
 40
0.2333882704833194
  1
DATE:
 41
0.6671087533156714
  7
GG
  0
TEXT
  5
530C0
  8
TITLE
 10
-8.2136017791606992
 20
16.84487822407743
 30
0.0
 40
0.233388270483323
  1
ARCHITECT:
 41
0.6671087533156612
  7
GG
  0
TEXT
  5
530C1
  8
TITLE
 10
-8.2136017791606992
 20
16.11553987881712
 30
0.0
 40
0.2333882704833212
  1
CUSTOMER:
 41
0.6671087533156664
  7
GG
  0
TEXT
  5
530C2
  8
TITLE
 10
-8.2136017791606992
 20
15.38620153355679
 30
0.0
 40
0.2333882704833212
  1
SALES REP:
 41
0.6671087533156664
  7
GG
  0
TEXT
  5
530C3
  8
TITLE
 10
-8.2136017791606992
 20
14.65686318829647
 30
0.0
 40
0.2333882704833212
  1
SALES OFFICE:
 41
0.6671087533156664
  7
GG
  0
TEXT
  5
530C4
  8
TITLE
 10
-8.2136017791606992
 20
13.92752484303614
 30
0.0
 40
0.233388270483323
  1
PLANT:
 41
0.6671087533156612
  7
GG
  0
TEXT
  5
530C5
  8
TITLE
 10
-8.2136017791606992
 20
13.19818649777582
 30
0.0
 40
0.2333882704833212
  1
BRICK NAME:
 41
0.6671087533156664
  7
GG
  0
TEXT
  5
530C6
  8
TITLE
 10
-8.2136017791606992
 20
12.192775301589791
 30
0.0
 40
0.2333882704833212
  1
BRICK TYPE:
 41
0.6671087533156664
  7
GG
  0
TEXT
  5
530C7
  8
TITLE
 10
-8.2136017791606992
 20
11.46343695632947
 30
0.0
 40
0.2333882704833212
  1
TEXTURE:
 41
0.6671087533156664
  7
GG
  0
TEXT
  5
530C8
  8
TITLE
 10
-8.2136017791606992
 20
9.2754219205485011
 30
0.0
 40
0.2333882704833212
  1
CORING:
 41
0.6671087533156664
  7
GG
  0
TEXT
  5
530C9
  8
TITLE
 10
-8.2136017791606992
 20
8.5460835752881792
 30
0.0
 40
0.2333882704833212
  1
SIZE:
 41
0.8005305039787968
  7
SIMPLEX
  0
TEXT
  5
530CA
  8
TITLE
 10
-5.5945121978335273
 20
8.5460835752881792
 30
0.0
 40
0.2333882704833212
  1
BOND:
 41
0.8005305039787968
  7
SIMPLEX
  0
TEXT
  5
530CB
  8
TITLE
 10
-8.2136017791606992
 20
7.8167452300278573
 30
0.0
 40
0.2333882704833221
  1
ASTM STANDARD:
 41
0.8005305039787938
  7
SIMPLEX
  0
TEXT
  5
530CC
  8
TITLE
 10
-8.2136017791606992
 20
7.0874068847675344
 30
0.0
 40
0.2333882704833221
  1
COMPUTER FILE:
 41
0.8005305039787938
  7
SIMPLEX
  0
TEXT
  5
530CD
  8
TITLE
 10
-8.2136017791606992
 20
6.3580685395072098
 30
0.0
 40
0.2333882704833221
  1
DRAWN BY:
 41
0.8005305039787938
  7
SIMPLEX
  0
TEXT
  5
530CE
  8
TITLE
 10
-8.1819323313537815
 20
10.78160029004715
 30
0.0
 40
0.2333882704833212
  1
NUMBER OF
 41
0.8005305039787968
  7
SIMPLEX
  0
TEXT
  5
530CF
  8
TITLE
 10
-8.1254847719344951
 20
10.443197090522339
 30
0.0
 40
0.233388270483323
  1
FINISHED FACES:
 41
0.8005305039787904
  7
SIMPLEX
  0
TEXT
  5
530D0
  8
TITLE
 10
-8.3515441957258254
 20
5.623390379414321
 30
0.0
 40
0.2567270975316337
  1
This document is the property 
 41
0.8005305039787934
  7
SIMPLEX
  0
TEXT
  5
530D1
  8
TITLE
 10
-8.3515441957258254
 20
5.1255361282437493
 30
0.0
 40
0.2567270975316355
  1
of GLEN-GERY CORPORATION and
 41
0.8005305039787876
  7
SIMPLEX
  0
TEXT
  5
530D2
  8
TITLE
 10
-8.3515441957258254
 20
4.6996163523143757
 30
0.0
 40
0.2567270975316355
  1
may not be reproduced without
 41
0.8005305039787876
  7
SIMPLEX
  0
TEXT
  5
530D3
  8
TITLE
 10
-8.3515441957258254
 20
4.2377293387644093
 30
0.0
 40
0.2567270975316318
  1
written permission from the
 41
0.8005305039787991
  7
SIMPLEX
  0
TEXT
  5
530D4
  8
TITLE
 10
-8.3515441957258254
 20
3.7933399002731081
 30
0.0
 40
0.2567270975316337
  1
appropriate Glen-Gery 
 41
0.8005305039787934
  7
SIMPLEX
  0
TEXT
  5
530D5
  8
TITLE
 10
-8.3515441957258254
 20
3.3683922118469991
 30
0.0
 40
0.2567270975316337
  1
Representative. The contents 
 41
0.8005305039787934
  7
SIMPLEX
  0
TEXT
  5
530D6
  8
TITLE
 10
-8.3515441957258254
 20
2.943444523420891
 30
0.0
 40
0.2567270975316337
  1
of this document are advisory 
 41
0.8005305039787934
  7
SIMPLEX
  0
TEXT
  5
530D7
  8
TITLE
 10
-8.3515441957258254
 20
2.517524747491525
 30
0.0
 40
0.2567270975316337
  1
only. Responsibility for 
 41
0.8005305039787934
  7
SIMPLEX
  0
TEXT
  5
530D8
  8
TITLE
 10
-8.3515441957258254
 20
2.110074634124087
 30
0.0
 40
0.2567270975316337
  1
accuracy and applicability lies 
 41
0.8005305039787934
  7
SIMPLEX
  0
TEXT
  5
530D9
  8
TITLE
 10
-8.3268928293692142
 20
1.6306900455154449
 30
0.0
 40
0.2567270975316337
  1
entirely with the Project 
 41
0.8005305039787938
  7
SIMPLEX
  0
TEXT
  5
530DA
  8
TITLE
 10
-8.3515441957258254
 20
1.2417095947099399
 30
0.0
 40
0.2567270975316337
  1
Designer and/or Owner.
 41
0.8005305039787934
  7
SIMPLEX
  0
TEXT
  5
530DB
  8
TITLE
 10
-33.589233693619683
 20
22.53503235919726
 30
0.0
 40
0.2567270975316355
  1
Signature
 41
0.8005305039787874
  7
SIMPLEX
  0
TEXT
  5
530DC
  8
TITLE
 10
-33.652039896825642
 20
23.560062938872601
 30
0.0
 40
0.2917353381041299
  1
faces, and specifications and I agree to them.
 41
0.8005305039787916
  7
SIMPLEX
  0
TEXT
  5
530DD
  8
TITLE
 10
-33.652039896825642
 20
24.05791719004317
 30
0.0
 40
0.2917353381041263
  1
This drawing has been reviewed for dimensions,
 41
0.8005305039788017
  7
SIMPLEX
  0
LINE
  5
530DE
  8
TITLE
 10
-33.726699250059887
 20
22.838521489005618
 30
0.0
 11
-23.814614652752169
 21
22.838521489005618
 31
0.0
  0
TEXT
  5
530DF
  8
TITLE
 10
-26.179633573930641
 20
22.53503235919726
 30
0.0
 40
0.2567270975316355
  1
Date
 41
0.8005305039787879
  7
SIMPLEX
  0
POLYLINE
  5
530E0
  8
TITLE
 66
     1
 10
0.0
 20
0.0
 30
0.0
 40
0.064375
 41
0.064375
  0
VERTEX
  5
53691
  8
TITLE
 10
-33.757371477386471
 20
22.369781862573198
 30
0.0
  0
VERTEX
  5
53692
  8
TITLE
 10
-23.814614652752169
 20
22.369781862573198
 30
0.0
  0
SEQEND
  5
53693
  8
TITLE
  0
POLYLINE
  5
530E1
  8
TITLE
 66
     1
 10
0.0
 20
0.0
 30
0.0
 40
0.064375
 41
0.064375
  0
VERTEX
  5
53694
  8
TITLE
 10
-23.814614652752169
 20
22.369781862573198
 30
0.0
  0
VERTEX
  5
53695
  8
TITLE
 10
-23.814614652752169
 20
24.42792617750569
 30
0.0
  0
SEQEND
  5
53696
  8
TITLE
  0
TEXT
  5
530E2
  8
TITLE
 10
-8.2136017791606992
 20
10.004760265808819
 30
0.0
 40
0.233388270483323
  1
TEXTURE DIRECTION:
 41
0.6671087533156612
  7
GG
  0
LINE
  5
530E3
  8
TITLE
 10
-8.4568757762866476
 20
10.36942943843898
 30
0.0
 11
-2.6182998452608821
 21
10.36942943843898
 31
0.0
  0
POLYLINE
  5
530E4
  8
TITLE
 66
     1
 10
0.0
 20
0.0
 30
0.0
 40
0.064375
 41
0.064375
  0
VERTEX
  5
53697
  8
TITLE
 10
-23.814614652752169
 20
22.369781862573198
 30
0.0
  0
VERTEX
  5
53698
  8
TITLE
 10
-16.491537129062579
 20
22.369781862573198
 30
0.0
  0
SEQEND
  5
53699
  8
TITLE
  0
LINE
  5
530E5
  8
TITLE
 10
-16.491537129062579
 20
22.369781862573198
 30
0.0
 11
-16.491537129062579
 21
24.42792617750569
 31
0.0
  0
TEXT
  5
530E6
  8
TITLE
 10
-23.533946274646311
 20
23.00930532082182
 30
0.0
 40
0.7001648114499104
  1
Qty :
 41
0.8005305039787931
  7
SIMPLEX
  0
LINE
  5
530E7
  8
TITLE
 10
-21.128102672234618
 20
22.742173676513961
 30
0.0
 11
-16.76655935776051
 21
22.742173676513961
 31
0.0
  0
INSERT
  5
530EA
  8
OBJ
  6
CONTINUOUS
  2
*X2
 10
0.0
 20
0.0
 30
0.0
1001
GRADIENTCOLOR1ACI
1070
     5
1001
GRADIENTCOLOR2ACI
1070
     2
1001
ACAD
1000
HATCH
1002
{
1070
    19
1000
DOTS
1040
1.5
1040
0.7853981633974483
1000
R14_HATCH_DATA
1000
530EA
1011
1.0
1021
0.0
1031
0.0
1021
0.0
1031
0.0
1011
0.0
1021
0.0
1031
0.0
1021
1.0
1031
0.0
1011
0.0
1021
0.0
1031
0.0
1021
0.0
1031
1.0
1040
0.0
1010
0.0
1020
0.0
1030
1.0
1000
DOTS
1070
     0
1070
     0
1071
        1
1071
        7
1070
     0
1070
     1
1071
        4
1040
-12.930367893744201
1040
1.9719754486128021
1040
-14.267875802385451
1040
1.9719754486128021
1040
-14.267875802385451
1040
1.425751060868542
1040
-12.930367893744201
1040
1.425751060868542
1071
        0
1070
     0
1070
     1
1040
0.7853981633974483
1040
1.5
1070
     0
1070
     1
1040
0.7853981633974483
1040
-5.9487560291120474
1040
-8.3020536761480557
1040
-0.0331456303681194
1040
0.0994368911043583
1070
     2
1040
0.0
1040
-0.09375
1040
0.0086172707574623
1071
        1
1040
-13.613723308614169
1040
1.7482070657834681
1040
0.0
1002
}
  0
LINE
  5
530EB
  8
TITLE2
 10
-14.267875802385451
 20
1.9719754486128021
 30
0.0
 11
-14.267875802385451
 21
1.425751060868542
 31
0.0
  0
LINE
  5
530EC
  8
TITLE2
 10
-14.267875802385451
 20
1.425751060868542
 30
0.0
 11
-12.930367893744201
 21
1.425751060868542
 31
0.0
  0
LINE
  5
530ED
  8
TITLE2
 10
-12.930367893744201
 20
1.425751060868542
 30
0.0
 11
-12.930367893744201
 21
1.9719754486128021
 31
0.0
  0
LINE
  5
530EE
  8
TITLE2
 10
-12.930367893744201
 20
1.9719754486128021
 30
0.0
 11
-14.267875802385451
 21
1.9719754486128021
 31
0.0
  0
TEXT
  5
530EF
  8
TITLE
 10
-12.770839099065819
 20
1.5709411158406359
 30
0.0
 40
0.2567270975316355
  1
INDICATES FINISHED FACES
 41
0.8005305039787876
  7
SIMPLEX
  0
ATTDEF
  5
530F0
  8
TITLE2
 10
-8.0531348495600241
 20
20.605159041778379
 30
0.0
 40
0.364669172630178
  1
N/A
 41
0.8005305039787987
  7
GGATT
  3
Drawing Title [line 1 of 2]:
  2
DWG1
 70
     0
  0
ATTDEF
  5
530F1
  8
TITLE2
 10
-8.0531348495600241
 20
19.997377087394771
 30
0.0
 40
0.364669172630178
  1
N/A
 41
0.8005305039787987
  7
GGATT
  3
Drawing Title [line 2 of 2]:
  2
DWG2
 70
     0
  0
ATTDEF
  5
530F2
  8
TITLE2
 10
-8.0531348495600241
 20
18.782648907222988
 30
0.0
 40
0.3646691726301817
  1
N/A
 41
0.8005305039787907
  7
GGATT
  3
PROJECT Name [line 1 of 2]:
  2
PROJ1
 70
     0
  0
ATTDEF
  5
530F3
  8
TITLE2
 10
-8.0531348495600241
 20
18.174866952839391
 30
0.0
 40
0.3646691726301817
  1
N/A
 41
0.8005305039787907
  7
GGATT
  3
PROJECT Name [line 2 of 2]:
  2
PROJ2
 70
     0
  0
ATTDEF
  5
530F4
  8
TITLE2
 10
-7.2400289630169432
 20
17.452660178461471
 30
0.0
 40
0.2431127817534672
  1
1 of 1
 41
0.8005305039787947
  7
GGATT
  3
PAGE NO. 
  2
PAGE
 70
     0
  0
ATTDEF
  5
530F5
  8
TITLE2
 10
-4.6465973632439086
 20
17.452660178461471
 30
0.0
 40
0.2431127817534672
  1
N/A
 41
0.8005305039787943
  7
GGATT
  3
DATE [DDMMMYY]:
  2
DATE
 70
     0
  0
ATTDEF
  5
530F6
  8
TITLE2
 10
-6.4591596990101721
 20
16.723321833201119
 30
0.0
 40
0.2431127817534691
  1
N/A
 41
0.8005305039787886
  7
GGATT
  3
DESIGN FIRM NAME:
  2
ARCH
 70
     0
  0
ATTDEF
  5
530F7
  8
TITLE2
 10
-6.4591596990101721
 20
15.993983487940779
 30
0.0
 40
0.2431127817534691
  1
N/A
 41
0.8005305039787886
  7
GGATT
  3
CUSTOMER NAME:
  2
CUST
 70
     0
  0
ATTDEF
  5
530F8
  8
TITLE2
 10
-6.4591596990101721
 20
15.26464514268041
 30
0.0
 40
0.2431127817534691
  1
N/A
 41
0.8005305039787886
  7
GGATT
  3
SALES REPRESENTATIVE:
  2
REP
 70
     0
  0
ATTDEF
  5
530F9
  8
TITLE2
 10
-6.134794369508878
 20
14.535306797420059
 30
0.0
 40
0.2431127817534691
  1
N/A
 41
0.8005305039787886
  7
GGATT
  3
PRIMARY SALES OFFICE:
  2
OFFICE
 70
     0
  0
ATTDEF
  5
530FA
  8
TITLE2
 10
-6.8350491287794064
 20
13.805968452159711
 30
0.0
 40
0.2431127817534691
  1
N/A
 41
0.8005305039787959
  7
GGATT
  3
BRICK PRODUCED AT WHAT PLANT ?
  2
PLANT
 70
     0
  0
ATTDEF
  5
530FB
  8
TITLE2
 10
-7.8941287090322687
 20
12.67613005555644
 30
0.0
 40
0.3640857019539519
  1
N/A
 41
0.800530503978797
  7
GGATT
  3
BRICK NAME:
  2
BRICK
 70
     0
  0
ATTDEF
  5
530FC
  8
TITLE2
 10
-6.5720548178487119
 20
12.071218910713309
 30
0.0
 40
0.2431127817534691
  1
N/A
 41
0.8005305039787963
  7
GGATT
  3
MOLDED, EXTRUDED, HANDMADE OR REPRESSED?
  2
PROCESS
 70
     0
  0
ATTDEF
  5
530FD
  8
TITLE2
 10
-4.6258628408409841
 20
12.071218910713309
 30
0.0
 40
0.2431127817534691
  1
N/A
 41
0.8005305039787959
  7
GGATT
  3
FLASHED OR CLEARBURN?
  2
BURN
 70
     0
  0
ATTDEF
  5
530FE
  8
TITLE2
 10
-6.8350491287794064
 20
11.34188056545297
 30
0.0
 40
0.2431127817534691
  1
N/A
 41
0.8005305039787959
  7
GGATT
  3
TEXTURE FOR FINISHED FACES?
  2
TEXT
 70
     0
  0
ATTDEF
  5
530FF
  8
TITLE2
 10
-4.8888571517716954
 20
10.612542220192619
 30
0.0
 40
0.2431127817534709
  1
N/A
 41
0.8005305039787897
  7
GGATT
  3
TOTAL NO. OF FINISHED FACES PER UNIT?
  2
FACE
 70
     0
  0
ATTDEF
  5
53100
  8
TITLE2
 10
-6.8350491287794064
 20
9.1538655296719522
 30
0.0
 40
0.24311278175347
  1
PLANT OPTION
 41
0.8005305039787929
  7
GGATT
  3
AS SHOWN/UNCORED/PLANT OPTION?
  2
CORING
 70
     0
  0
ATTDEF
  5
53101
  8
TITLE2
 10
-7.1594144582806889
 20
8.4245271844116036
 30
0.0
 40
0.24311278175347
  1
N/A
 41
0.8005305039787929
  7
GGATT
  3
SIZE OF SURROUNDING BRICK?
  2
SIZE
 70
     0
  0
ATTDEF
  5
53102
  8
TITLE2
 10
-4.5644918222704121
 20
8.4245271844116036
 30
0.0
 40
0.24311278175347
  1
N/A
 41
0.8005305039787929
  7
GGATT
  3
BOND PATTERN OF SURROUNDING BRICKWORK?
  2
BOND
 70
     0
  0
ATTDEF
  5
53103
  8
TITLE2
 10
-5.3986184360624421
 20
7.6951888391512613
 30
0.0
 40
0.2431127817534672
  1
C216, FBS, SW
 41
0.8005305039787939
  7
GGATT
  3
ENTER THE ASTM STANDARD ?
  2
ASTM
 70
     0
  0
ATTDEF
  5
53104
  8
TITLE2
 10
-5.38301550997038
 20
6.9658504938909109
 30
0.0
 40
0.2431127817534672
  1
N/A
 41
0.8005305039787943
  7
GGATT
  3
COMPUTER FILE [INCLUDE PATH AND DRIVE]:
  2
FILE
 70
     0
  0
ATTDEF
  5
53105
  8
TITLE2
 10
-6.1217572415722472
 20
6.2365121486305677
 30
0.0
 40
0.2431127817534672
  1
N/A
 41
0.8005305039787947
  7
GGATT
  3
DRAWN BY:
  2
BY
 70
     0
  0
ATTDEF
  5
53106
  8
TITLE2
 10
-5.5583678395734921
 20
9.8530691623312308
 30
0.0
 40
0.2431127817534691
  1
PLANT OPTION
 41
0.8005305039787959
  7
GGATT
  3
AS SHOWN/PLANT OPTION?
  2
TEXTURE
 70
     0
  0
ENDBLK
  5
52FC1
  8
0
  0
BLOCK
  8
0
  2
*X2
 70
     1
 10
0.0
 20
0.0
 30
0.0
  3
*X2
  1

  0
LINE
  5
5369B
  8
0
 62
     0
 10
-12.94248403678524
 20
1.542198543183408
 30
0.0
 11
-12.94248403678524
 21
1.542198543183408
 31
0.0
  0
LINE
  5
5369C
  8
0
 62
     0
 10
-13.008775297521479
 20
1.4759072824471691
 30
0.0
 11
-13.008775297521479
 21
1.4759072824471691
 31
0.0
  0
LINE
  5
5369D
  8
0
 62
     0
 10
-12.97562966715336
 20
1.641635434287767
 30
0.0
 11
-12.97562966715336
 21
1.641635434287767
 31
0.0
  0
LINE
  5
5369E
  8
0
 62
     0
 10
-13.041920927889599
 20
1.5753441735515279
 30
0.0
 11
-13.041920927889599
 21
1.5753441735515279
 31
0.0
  0
LINE
  5
5369F
  8
0
 62
     0
 10
-13.10821218862584
 20
1.509052912815289
 30
0.0
 11
-13.10821218862584
 21
1.509052912815289
 31
0.0
  0
LINE
  5
536A0
  8
0
 62
     0
 10
-13.17450344936208
 20
1.44276165207905
 30
0.0
 11
-13.17450344936208
 21
1.44276165207905
 31
0.0
  0
LINE
  5
536A1
  8
0
 62
     0
 10
-12.94248403678524
 20
1.807363586128365
 30
0.0
 11
-12.94248403678524
 21
1.807363586128365
 31
0.0
  0
LINE
  5
536A2
  8
0
 62
     0
 10
-13.008775297521479
 20
1.7410723253921261
 30
0.0
 11
-13.008775297521479
 21
1.7410723253921261
 31
0.0
  0
LINE
  5
536A3
  8
0
 62
     0
 10
-13.075066558257721
 20
1.6747810646558869
 30
0.0
 11
-13.075066558257721
 21
1.6747810646558869
 31
0.0
  0
LINE
  5
536A4
  8
0
 62
     0
 10
-13.14135781899396
 20
1.608489803919648
 30
0.0
 11
-13.14135781899396
 21
1.608489803919648
 31
0.0
  0
LINE
  5
536A5
  8
0
 62
     0
 10
-13.207649079730199
 20
1.5421985431834091
 30
0.0
 11
-13.207649079730199
 21
1.5421985431834091
 31
0.0
  0
LINE
  5
536A6
  8
0
 62
     0
 10
-13.27394034046643
 20
1.47590728244717
 30
0.0
 11
-13.27394034046643
 21
1.47590728244717
 31
0.0
  0
LINE
  5
536A7
  8
0
 62
     0
 10
-12.975629667153351
 20
1.9068004772327221
 30
0.0
 11
-12.975629667153351
 21
1.9068004772327221
 31
0.0
  0
LINE
  5
536A8
  8
0
 62
     0
 10
-13.04192092788959
 20
1.8405092164964829
 30
0.0
 11
-13.04192092788959
 21
1.8405092164964829
 31
0.0
  0
LINE
  5
536A9
  8
0
 62
     0
 10
-13.10821218862583
 20
1.774217955760244
 30
0.0
 11
-13.10821218862583
 21
1.774217955760244
 31
0.0
  0
LINE
  5
536AA
  8
0
 62
     0
 10
-13.174503449362071
 20
1.7079266950240051
 30
0.0
 11
-13.174503449362071
 21
1.7079266950240051
 31
0.0
  0
LINE
  5
536AB
  8
0
 62
     0
 10
-13.24079471009831
 20
1.641635434287767
 30
0.0
 11
-13.24079471009831
 21
1.641635434287767
 31
0.0
  0
LINE
  5
536AC
  8
0
 62
     0
 10
-13.307085970834549
 20
1.5753441735515279
 30
0.0
 11
-13.307085970834549
 21
1.5753441735515279
 31
0.0
  0
LINE
  5
536AD
  8
0
 62
     0
 10
-13.373377231570791
 20
1.509052912815289
 30
0.0
 11
-13.373377231570791
 21
1.509052912815289
 31
0.0
  0
LINE
  5
536AE
  8
0
 62
     0
 10
-13.43966849230703
 20
1.44276165207905
 30
0.0
 11
-13.43966849230703
 21
1.44276165207905
 31
0.0
  0
LINE
  5
536AF
  8
0
 62
     0
 10
-13.07506655825771
 20
1.9399461076008431
 30
0.0
 11
-13.07506655825771
 21
1.9399461076008431
 31
0.0
  0
LINE
  5
536B0
  8
0
 62
     0
 10
-13.141357818993949
 20
1.8736548468646039
 30
0.0
 11
-13.141357818993949
 21
1.8736548468646039
 31
0.0
  0
LINE
  5
536B1
  8
0
 62
     0
 10
-13.20764907973019
 20
1.807363586128365
 30
0.0
 11
-13.20764907973019
 21
1.807363586128365
 31
0.0
  0
LINE
  5
536B2
  8
0
 62
     0
 10
-13.27394034046643
 20
1.7410723253921261
 30
0.0
 11
-13.27394034046643
 21
1.7410723253921261
 31
0.0
  0
LINE
  5
536B3
  8
0
 62
     0
 10
-13.340231601202669
 20
1.6747810646558881
 30
0.0
 11
-13.340231601202669
 21
1.6747810646558881
 31
0.0
  0
LINE
  5
536B4
  8
0
 62
     0
 10
-13.40652286193891
 20
1.6084898039196489
 30
0.0
 11
-13.40652286193891
 21
1.6084898039196489
 31
0.0
  0
LINE
  5
536B5
  8
0
 62
     0
 10
-13.47281412267515
 20
1.54219854318341
 30
0.0
 11
-13.47281412267515
 21
1.54219854318341
 31
0.0
  0
LINE
  5
536B6
  8
0
 62
     0
 10
-13.539105383411391
 20
1.4759072824471711
 30
0.0
 11
-13.539105383411391
 21
1.4759072824471711
 31
0.0
  0
LINE
  5
536B7
  8
0
 62
     0
 10
-13.24079471009831
 20
1.9068004772327241
 30
0.0
 11
-13.24079471009831
 21
1.9068004772327241
 31
0.0
  0
LINE
  5
536B8
  8
0
 62
     0
 10
-13.307085970834549
 20
1.8405092164964849
 30
0.0
 11
-13.307085970834549
 21
1.8405092164964849
 31
0.0
  0
LINE
  5
536B9
  8
0
 62
     0
 10
-13.373377231570791
 20
1.774217955760246
 30
0.0
 11
-13.373377231570791
 21
1.774217955760246
 31
0.0
  0
LINE
  5
536BA
  8
0
 62
     0
 10
-13.43966849230703
 20
1.7079266950240071
 30
0.0
 11
-13.43966849230703
 21
1.7079266950240071
 31
0.0
  0
LINE
  5
536BB
  8
0
 62
     0
 10
-13.505959753043269
 20
1.6416354342877679
 30
0.0
 11
-13.505959753043269
 21
1.6416354342877679
 31
0.0
  0
LINE
  5
536BC
  8
0
 62
     0
 10
-13.57225101377951
 20
1.575344173551529
 30
0.0
 11
-13.57225101377951
 21
1.575344173551529
 31
0.0
  0
LINE
  5
536BD
  8
0
 62
     0
 10
-13.63854227451575
 20
1.5090529128152901
 30
0.0
 11
-13.63854227451575
 21
1.5090529128152901
 31
0.0
  0
LINE
  5
536BE
  8
0
 62
     0
 10
-13.704833535251989
 20
1.442761652079052
 30
0.0
 11
-13.704833535251989
 21
1.442761652079052
 31
0.0
  0
LINE
  5
536BF
  8
0
 62
     0
 10
-13.340231601202669
 20
1.939946107600842
 30
0.0
 11
-13.340231601202669
 21
1.939946107600842
 31
0.0
  0
LINE
  5
536C0
  8
0
 62
     0
 10
-13.40652286193891
 20
1.873654846864603
 30
0.0
 11
-13.40652286193891
 21
1.873654846864603
 31
0.0
  0
LINE
  5
536C1
  8
0
 62
     0
 10
-13.47281412267515
 20
1.8073635861283639
 30
0.0
 11
-13.47281412267515
 21
1.8073635861283639
 31
0.0
  0
LINE
  5
536C2
  8
0
 62
     0
 10
-13.539105383411391
 20
1.741072325392125
 30
0.0
 11
-13.539105383411391
 21
1.741072325392125
 31
0.0
  0
LINE
  5
536C3
  8
0
 62
     0
 10
-13.60539664414763
 20
1.6747810646558861
 30
0.0
 11
-13.60539664414763
 21
1.6747810646558861
 31
0.0
  0
LINE
  5
536C4
  8
0
 62
     0
 10
-13.67168790488387
 20
1.6084898039196469
 30
0.0
 11
-13.67168790488387
 21
1.6084898039196469
 31
0.0
  0
LINE
  5
536C5
  8
0
 62
     0
 10
-13.737979165620111
 20
1.5421985431834091
 30
0.0
 11
-13.737979165620111
 21
1.5421985431834091
 31
0.0
  0
LINE
  5
536C6
  8
0
 62
     0
 10
-13.804270426356339
 20
1.47590728244717
 30
0.0
 11
-13.804270426356339
 21
1.47590728244717
 31
0.0
  0
LINE
  5
536C7
  8
0
 62
     0
 10
-13.505959753043269
 20
1.9068004772327229
 30
0.0
 11
-13.505959753043269
 21
1.9068004772327229
 31
0.0
  0
LINE
  5
536C8
  8
0
 62
     0
 10
-13.57225101377951
 20
1.840509216496484
 30
0.0
 11
-13.57225101377951
 21
1.840509216496484
 31
0.0
  0
LINE
  5
536C9
  8
0
 62
     0
 10
-13.63854227451575
 20
1.7742179557602451
 30
0.0
 11
-13.63854227451575
 21
1.7742179557602451
 31
0.0
  0
LINE
  5
536CA
  8
0
 62
     0
 10
-13.70483353525198
 20
1.707926695024006
 30
0.0
 11
-13.70483353525198
 21
1.707926695024006
 31
0.0
  0
LINE
  5
536CB
  8
0
 62
     0
 10
-13.77112479598822
 20
1.641635434287767
 30
0.0
 11
-13.77112479598822
 21
1.641635434287767
 31
0.0
  0
LINE
  5
536CC
  8
0
 62
     0
 10
-13.837416056724461
 20
1.575344173551529
 30
0.0
 11
-13.837416056724461
 21
1.575344173551529
 31
0.0
  0
LINE
  5
536CD
  8
0
 62
     0
 10
-13.9037073174607
 20
1.5090529128152901
 30
0.0
 11
-13.9037073174607
 21
1.5090529128152901
 31
0.0
  0
LINE
  5
536CE
  8
0
 62
     0
 10
-13.96999857819694
 20
1.4427616520790509
 30
0.0
 11
-13.96999857819694
 21
1.4427616520790509
 31
0.0
  0
LINE
  5
536CF
  8
0
 62
     0
 10
-13.60539664414762
 20
1.9399461076008431
 30
0.0
 11
-13.60539664414762
 21
1.9399461076008431
 31
0.0
  0
LINE
  5
536D0
  8
0
 62
     0
 10
-13.671687904883861
 20
1.8736548468646039
 30
0.0
 11
-13.671687904883861
 21
1.8736548468646039
 31
0.0
  0
LINE
  5
536D1
  8
0
 62
     0
 10
-13.7379791656201
 20
1.807363586128365
 30
0.0
 11
-13.7379791656201
 21
1.807363586128365
 31
0.0
  0
LINE
  5
536D2
  8
0
 62
     0
 10
-13.804270426356339
 20
1.7410723253921261
 30
0.0
 11
-13.804270426356339
 21
1.7410723253921261
 31
0.0
  0
LINE
  5
536D3
  8
0
 62
     0
 10
-13.870561687092581
 20
1.6747810646558869
 30
0.0
 11
-13.870561687092581
 21
1.6747810646558869
 31
0.0
  0
LINE
  5
536D4
  8
0
 62
     0
 10
-13.93685294782882
 20
1.608489803919648
 30
0.0
 11
-13.93685294782882
 21
1.608489803919648
 31
0.0
  0
LINE
  5
536D5
  8
0
 62
     0
 10
-14.003144208565059
 20
1.5421985431834091
 30
0.0
 11
-14.003144208565059
 21
1.5421985431834091
 31
0.0
  0
LINE
  5
536D6
  8
0
 62
     0
 10
-14.0694354693013
 20
1.47590728244717
 30
0.0
 11
-14.0694354693013
 21
1.47590728244717
 31
0.0
  0
LINE
  5
536D7
  8
0
 62
     0
 10
-13.77112479598822
 20
1.9068004772327241
 30
0.0
 11
-13.77112479598822
 21
1.9068004772327241
 31
0.0
  0
LINE
  5
536D8
  8
0
 62
     0
 10
-13.837416056724461
 20
1.8405092164964849
 30
0.0
 11
-13.837416056724461
 21
1.8405092164964849
 31
0.0
  0
LINE
  5
536D9
  8
0
 62
     0
 10
-13.9037073174607
 20
1.774217955760246
 30
0.0
 11
-13.9037073174607
 21
1.774217955760246
 31
0.0
  0
LINE
  5
536DA
  8
0
 62
     0
 10
-13.96999857819694
 20
1.7079266950240071
 30
0.0
 11
-13.96999857819694
 21
1.7079266950240071
 31
0.0
  0
LINE
  5
536DB
  8
0
 62
     0
 10
-14.036289838933181
 20
1.6416354342877679
 30
0.0
 11
-14.036289838933181
 21
1.6416354342877679
 31
0.0
  0
LINE
  5
536DC
  8
0
 62
     0
 10
-14.10258109966942
 20
1.575344173551529
 30
0.0
 11
-14.10258109966942
 21
1.575344173551529
 31
0.0
  0
LINE
  5
536DD
  8
0
 62
     0
 10
-14.168872360405659
 20
1.5090529128152901
 30
0.0
 11
-14.168872360405659
 21
1.5090529128152901
 31
0.0
  0
LINE
  5
536DE
  8
0
 62
     0
 10
-14.235163621141901
 20
1.4427616520790509
 30
0.0
 11
-14.235163621141901
 21
1.4427616520790509
 31
0.0
  0
LINE
  5
536DF
  8
0
 62
     0
 10
-13.870561687092581
 20
1.9399461076008411
 30
0.0
 11
-13.870561687092581
 21
1.9399461076008411
 31
0.0
  0
LINE
  5
536E0
  8
0
 62
     0
 10
-13.93685294782882
 20
1.8736548468646019
 30
0.0
 11
-13.93685294782882
 21
1.8736548468646019
 31
0.0
  0
LINE
  5
536E1
  8
0
 62
     0
 10
-14.003144208565059
 20
1.807363586128363
 30
0.0
 11
-14.003144208565059
 21
1.807363586128363
 31
0.0
  0
LINE
  5
536E2
  8
0
 62
     0
 10
-14.0694354693013
 20
1.7410723253921241
 30
0.0
 11
-14.0694354693013
 21
1.7410723253921241
 31
0.0
  0
LINE
  5
536E3
  8
0
 62
     0
 10
-14.13572673003754
 20
1.6747810646558849
 30
0.0
 11
-14.13572673003754
 21
1.6747810646558849
 31
0.0
  0
LINE
  5
536E4
  8
0
 62
     0
 10
-14.202017990773779
 20
1.608489803919646
 30
0.0
 11
-14.202017990773779
 21
1.608489803919646
 31
0.0
  0
LINE
  5
536E5
  8
0
 62
     0
 10
-14.036289838933181
 20
1.9068004772327229
 30
0.0
 11
-14.036289838933181
 21
1.9068004772327229
 31
0.0
  0
LINE
  5
536E6
  8
0
 62
     0
 10
-14.10258109966942
 20
1.840509216496484
 30
0.0
 11
-14.10258109966942
 21
1.840509216496484
 31
0.0
  0
LINE
  5
536E7
  8
0
 62
     0
 10
-14.168872360405659
 20
1.7742179557602451
 30
0.0
 11
-14.168872360405659
 21
1.7742179557602451
 31
0.0
  0
LINE
  5
536E8
  8
0
 62
     0
 10
-14.235163621141901
 20
1.707926695024006
 30
0.0
 11
-14.235163621141901
 21
1.707926695024006
 31
0.0
  0
LINE
  5
536E9
  8
0
 62
     0
 10
-14.13572673003754
 20
1.9399461076008431
 30
0.0
 11
-14.13572673003754
 21
1.9399461076008431
 31
0.0
  0
LINE
  5
536EA
  8
0
 62
     0
 10
-14.202017990773779
 20
1.8736548468646039
 30
0.0
 11
-14.202017990773779
 21
1.8736548468646039
 31
0.0
  0
ENDBLK
  5
536EC
  8
0
  0
BLOCK
  8
0
  2
*X3
 70
     1
 10
0.0
 20
0.0
 30
0.0
  3
*X3
  1

  0
LINE
  5
536EE
  8
0
 62
     0
 10
-18.437958661826041
 20
3.4099452747391039
 30
0.0
 11
-18.437958661826041
 21
3.4099452747391039
 31
0.0
  0
LINE
  5
536EF
  8
0
 62
     0
 10
-18.40481303145792
 20
3.5756734265797019
 30
0.0
 11
-18.40481303145792
 21
3.5756734265797019
 31
0.0
  0
LINE
  5
536F0
  8
0
 62
     0
 10
-18.471104292194159
 20
3.509382165843463
 30
0.0
 11
-18.471104292194159
 21
3.509382165843463
 31
0.0
  0
LINE
  5
536F1
  8
0
 62
     0
 10
-18.537395552930398
 20
3.443090905107224
 30
0.0
 11
-18.537395552930398
 21
3.443090905107224
 31
0.0
  0
LINE
  5
536F2
  8
0
 62
     0
 10
-18.437958661826041
 20
3.6751103176840569
 30
0.0
 11
-18.437958661826041
 21
3.6751103176840569
 31
0.0
  0
LINE
  5
536F3
  8
0
 62
     0
 10
-18.504249922562281
 20
3.608819056947818
 30
0.0
 11
-18.504249922562281
 21
3.608819056947818
 31
0.0
  0
LINE
  5
536F4
  8
0
 62
     0
 10
-18.57054118329852
 20
3.5425277962115791
 30
0.0
 11
-18.57054118329852
 21
3.5425277962115791
 31
0.0
  0
LINE
  5
536F5
  8
0
 62
     0
 10
-18.636832444034759
 20
3.4762365354753411
 30
0.0
 11
-18.636832444034759
 21
3.4762365354753411
 31
0.0
  0
LINE
  5
536F6
  8
0
 62
     0
 10
-18.404813031457909
 20
3.8408384695246589
 30
0.0
 11
-18.404813031457909
 21
3.8408384695246589
 31
0.0
  0
LINE
  5
536F7
  8
0
 62
     0
 10
-18.471104292194148
 20
3.77454720878842
 30
0.0
 11
-18.471104292194148
 21
3.77454720878842
 31
0.0
  0
LINE
  5
536F8
  8
0
 62
     0
 10
-18.537395552930391
 20
3.7082559480521811
 30
0.0
 11
-18.537395552930391
 21
3.7082559480521811
 31
0.0
  0
LINE
  5
536F9
  8
0
 62
     0
 10
-18.603686813666631
 20
3.6419646873159421
 30
0.0
 11
-18.603686813666631
 21
3.6419646873159421
 31
0.0
  0
LINE
  5
536FA
  8
0
 62
     0
 10
-18.66997807440287
 20
3.5756734265797032
 30
0.0
 11
-18.66997807440287
 21
3.5756734265797032
 31
0.0
  0
LINE
  5
536FB
  8
0
 62
     0
 10
-18.43795866182603
 20
3.9402753606290171
 30
0.0
 11
-18.43795866182603
 21
3.9402753606290171
 31
0.0
  0
LINE
  5
536FC
  8
0
 62
     0
 10
-18.50424992256227
 20
3.8739840998927781
 30
0.0
 11
-18.50424992256227
 21
3.8739840998927781
 31
0.0
  0
LINE
  5
536FD
  8
0
 62
     0
 10
-18.570541183298509
 20
3.8076928391565401
 30
0.0
 11
-18.570541183298509
 21
3.8076928391565401
 31
0.0
  0
LINE
  5
536FE
  8
0
 62
     0
 10
-18.636832444034749
 20
3.7414015784203012
 30
0.0
 11
-18.636832444034749
 21
3.7414015784203012
 31
0.0
  0
LINE
  5
536FF
  8
0
 62
     0
 10
-18.703123704770992
 20
3.6751103176840618
 30
0.0
 11
-18.703123704770992
 21
3.6751103176840618
 31
0.0
  0
LINE
  5
53700
  8
0
 62
     0
 10
-18.769414965507231
 20
3.6088190569478229
 30
0.0
 11
-18.769414965507231
 21
3.6088190569478229
 31
0.0
  0
LINE
  5
53701
  8
0
 62
     0
 10
-18.404813031457909
 20
4.106003512469611
 30
0.0
 11
-18.404813031457909
 21
4.106003512469611
 31
0.0
  0
LINE
  5
53702
  8
0
 62
     0
 10
-18.471104292194148
 20
4.0397122517333726
 30
0.0
 11
-18.471104292194148
 21
4.0397122517333726
 31
0.0
  0
LINE
  5
53703
  8
0
 62
     0
 10
-18.537395552930391
 20
3.9734209909971341
 30
0.0
 11
-18.537395552930391
 21
3.9734209909971341
 31
0.0
  0
LINE
  5
53704
  8
0
 62
     0
 10
-18.603686813666631
 20
3.9071297302608952
 30
0.0
 11
-18.603686813666631
 21
3.9071297302608952
 31
0.0
  0
LINE
  5
53705
  8
0
 62
     0
 10
-18.66997807440287
 20
3.8408384695246558
 30
0.0
 11
-18.66997807440287
 21
3.8408384695246558
 31
0.0
  0
LINE
  5
53706
  8
0
 62
     0
 10
-18.736269335139109
 20
3.7745472087884169
 30
0.0
 11
-18.736269335139109
 21
3.7745472087884169
 31
0.0
  0
LINE
  5
53707
  8
0
 62
     0
 10
-18.802560595875349
 20
3.708255948052178
 30
0.0
 11
-18.802560595875349
 21
3.708255948052178
 31
0.0
  0
LINE
  5
53708
  8
0
 62
     0
 10
-18.868851856611592
 20
3.641964687315939
 30
0.0
 11
-18.868851856611592
 21
3.641964687315939
 31
0.0
  0
LINE
  5
53709
  8
0
 62
     0
 10
-18.371667401089798
 20
4.271731664310205
 30
0.0
 11
-18.371667401089798
 21
4.271731664310205
 31
0.0
  0
LINE
  5
5370A
  8
0
 62
     0
 10
-18.437958661826041
 20
4.2054404035739674
 30
0.0
 11
-18.437958661826041
 21
4.2054404035739674
 31
0.0
  0
LINE
  5
5370B
  8
0
 62
     0
 10
-18.50424992256227
 20
4.1391491428377281
 30
0.0
 11
-18.50424992256227
 21
4.1391491428377281
 31
0.0
  0
LINE
  5
5370C
  8
0
 62
     0
 10
-18.570541183298509
 20
4.0728578821014896
 30
0.0
 11
-18.570541183298509
 21
4.0728578821014896
 31
0.0
  0
LINE
  5
5370D
  8
0
 62
     0
 10
-18.636832444034749
 20
4.0065666213652511
 30
0.0
 11
-18.636832444034749
 21
4.0065666213652511
 31
0.0
  0
LINE
  5
5370E
  8
0
 62
     0
 10
-18.703123704770992
 20
3.9402753606290131
 30
0.0
 11
-18.703123704770992
 21
3.9402753606290131
 31
0.0
  0
LINE
  5
5370F
  8
0
 62
     0
 10
-18.769414965507231
 20
3.8739840998927741
 30
0.0
 11
-18.769414965507231
 21
3.8739840998927741
 31
0.0
  0
LINE
  5
53710
  8
0
 62
     0
 10
-18.83570622624347
 20
3.8076928391565348
 30
0.0
 11
-18.83570622624347
 21
3.8076928391565348
 31
0.0
  0
LINE
  5
53711
  8
0
 62
     0
 10
-18.90199748697971
 20
3.7414015784202959
 30
0.0
 11
-18.90199748697971
 21
3.7414015784202959
 31
0.0
  0
LINE
  5
53712
  8
0
 62
     0
 10
-18.968288747715949
 20
3.6751103176840569
 30
0.0
 11
-18.968288747715949
 21
3.6751103176840569
 31
0.0
  0
LINE
  5
53713
  8
0
 62
     0
 10
-18.33852177072168
 20
4.4374598161508043
 30
0.0
 11
-18.33852177072168
 21
4.4374598161508043
 31
0.0
  0
LINE
  5
53714
  8
0
 62
     0
 10
-18.404813031457909
 20
4.3711685554145649
 30
0.0
 11
-18.404813031457909
 21
4.3711685554145649
 31
0.0
  0
LINE
  5
53715
  8
0
 62
     0
 10
-18.471104292194148
 20
4.3048772946783274
 30
0.0
 11
-18.471104292194148
 21
4.3048772946783274
 31
0.0
  0
LINE
  5
53716
  8
0
 62
     0
 10
-18.537395552930391
 20
4.238586033942088
 30
0.0
 11
-18.537395552930391
 21
4.238586033942088
 31
0.0
  0
LINE
  5
53717
  8
0
 62
     0
 10
-18.603686813666631
 20
4.1722947732058504
 30
0.0
 11
-18.603686813666631
 21
4.1722947732058504
 31
0.0
  0
LINE
  5
53718
  8
0
 62
     0
 10
-18.66997807440287
 20
4.106003512469611
 30
0.0
 11
-18.66997807440287
 21
4.106003512469611
 31
0.0
  0
LINE
  5
53719
  8
0
 62
     0
 10
-18.736269335139109
 20
4.0397122517333726
 30
0.0
 11
-18.736269335139109
 21
4.0397122517333726
 31
0.0
  0
LINE
  5
5371A
  8
0
 62
     0
 10
-18.802560595875349
 20
3.9734209909971341
 30
0.0
 11
-18.802560595875349
 21
3.9734209909971341
 31
0.0
  0
LINE
  5
5371B
  8
0
 62
     0
 10
-18.868851856611592
 20
3.907129730260896
 30
0.0
 11
-18.868851856611592
 21
3.907129730260896
 31
0.0
  0
LINE
  5
5371C
  8
0
 62
     0
 10
-18.935143117347831
 20
3.8408384695246571
 30
0.0
 11
-18.935143117347831
 21
3.8408384695246571
 31
0.0
  0
LINE
  5
5371D
  8
0
 62
     0
 10
-19.00143437808407
 20
3.7745472087884182
 30
0.0
 11
-19.00143437808407
 21
3.7745472087884182
 31
0.0
  0
LINE
  5
5371E
  8
0
 62
     0
 10
-19.06772563882031
 20
3.7082559480521788
 30
0.0
 11
-19.06772563882031
 21
3.7082559480521788
 31
0.0
  0
LINE
  5
5371F
  8
0
 62
     0
 10
-18.305376140353552
 20
4.6031879679913992
 30
0.0
 11
-18.305376140353552
 21
4.6031879679913992
 31
0.0
  0
LINE
  5
53720
  8
0
 62
     0
 10
-18.371667401089791
 20
4.5368967072551598
 30
0.0
 11
-18.371667401089791
 21
4.5368967072551598
 31
0.0
  0
LINE
  5
53721
  8
0
 62
     0
 10
-18.43795866182603
 20
4.4706054465189222
 30
0.0
 11
-18.43795866182603
 21
4.4706054465189222
 31
0.0
  0
LINE
  5
53722
  8
0
 62
     0
 10
-18.50424992256227
 20
4.4043141857826829
 30
0.0
 11
-18.50424992256227
 21
4.4043141857826829
 31
0.0
  0
LINE
  5
53723
  8
0
 62
     0
 10
-18.570541183298509
 20
4.3380229250464453
 30
0.0
 11
-18.570541183298509
 21
4.3380229250464453
 31
0.0
  0
LINE
  5
53724
  8
0
 62
     0
 10
-18.636832444034749
 20
4.2717316643102059
 30
0.0
 11
-18.636832444034749
 21
4.2717316643102059
 31
0.0
  0
LINE
  5
53725
  8
0
 62
     0
 10
-18.703123704770992
 20
4.2054404035739683
 30
0.0
 11
-18.703123704770992
 21
4.2054404035739683
 31
0.0
  0
LINE
  5
53726
  8
0
 62
     0
 10
-18.769414965507231
 20
4.1391491428377289
 30
0.0
 11
-18.769414965507231
 21
4.1391491428377289
 31
0.0
  0
LINE
  5
53727
  8
0
 62
     0
 10
-18.83570622624347
 20
4.0728578821014914
 30
0.0
 11
-18.83570622624347
 21
4.0728578821014914
 31
0.0
  0
LINE
  5
53728
  8
0
 62
     0
 10
-18.90199748697971
 20
4.006566621365252
 30
0.0
 11
-18.90199748697971
 21
4.006566621365252
 31
0.0
  0
LINE
  5
53729
  8
0
 62
     0
 10
-18.968288747715949
 20
3.940275360629014
 30
0.0
 11
-18.968288747715949
 21
3.940275360629014
 31
0.0
  0
LINE
  5
5372A
  8
0
 62
     0
 10
-19.034580008452188
 20
3.873984099892775
 30
0.0
 11
-19.034580008452188
 21
3.873984099892775
 31
0.0
  0
LINE
  5
5372B
  8
0
 62
     0
 10
-19.100871269188431
 20
3.8076928391565361
 30
0.0
 11
-19.100871269188431
 21
3.8076928391565361
 31
0.0
  0
LINE
  5
5372C
  8
0
 62
     0
 10
-18.272230509985441
 20
4.7689161198319949
 30
0.0
 11
-18.272230509985441
 21
4.7689161198319949
 31
0.0
  0
LINE
  5
5372D
  8
0
 62
     0
 10
-18.33852177072168
 20
4.7026248590957573
 30
0.0
 11
-18.33852177072168
 21
4.7026248590957573
 31
0.0
  0
LINE
  5
5372E
  8
0
 62
     0
 10
-18.404813031457909
 20
4.636333598359518
 30
0.0
 11
-18.404813031457909
 21
4.636333598359518
 31
0.0
  0
LINE
  5
5372F
  8
0
 62
     0
 10
-18.471104292194148
 20
4.5700423376232804
 30
0.0
 11
-18.471104292194148
 21
4.5700423376232804
 31
0.0
  0
LINE
  5
53730
  8
0
 62
     0
 10
-18.537395552930391
 20
4.503751076887041
 30
0.0
 11
-18.537395552930391
 21
4.503751076887041
 31
0.0
  0
LINE
  5
53731
  8
0
 62
     0
 10
-18.603686813666631
 20
4.4374598161508034
 30
0.0
 11
-18.603686813666631
 21
4.4374598161508034
 31
0.0
  0
LINE
  5
53732
  8
0
 62
     0
 10
-18.66997807440287
 20
4.3711685554145641
 30
0.0
 11
-18.66997807440287
 21
4.3711685554145641
 31
0.0
  0
LINE
  5
53733
  8
0
 62
     0
 10
-18.736269335139109
 20
4.3048772946783256
 30
0.0
 11
-18.736269335139109
 21
4.3048772946783256
 31
0.0
  0
LINE
  5
53734
  8
0
 62
     0
 10
-18.802560595875349
 20
4.2385860339420871
 30
0.0
 11
-18.802560595875349
 21
4.2385860339420871
 31
0.0
  0
LINE
  5
53735
  8
0
 62
     0
 10
-18.868851856611592
 20
4.1722947732058486
 30
0.0
 11
-18.868851856611592
 21
4.1722947732058486
 31
0.0
  0
LINE
  5
53736
  8
0
 62
     0
 10
-18.935143117347831
 20
4.106003512469611
 30
0.0
 11
-18.935143117347831
 21
4.106003512469611
 31
0.0
  0
LINE
  5
53737
  8
0
 62
     0
 10
-19.00143437808407
 20
4.0397122517333717
 30
0.0
 11
-19.00143437808407
 21
4.0397122517333717
 31
0.0
  0
LINE
  5
53738
  8
0
 62
     0
 10
-19.06772563882031
 20
3.9734209909971341
 30
0.0
 11
-19.06772563882031
 21
3.9734209909971341
 31
0.0
  0
LINE
  5
53739
  8
0
 62
     0
 10
-19.134016899556549
 20
3.9071297302608952
 30
0.0
 11
-19.134016899556549
 21
3.9071297302608952
 31
0.0
  0
LINE
  5
5373A
  8
0
 62
     0
 10
-19.200308160292789
 20
3.8408384695246558
 30
0.0
 11
-19.200308160292789
 21
3.8408384695246558
 31
0.0
  0
LINE
  5
5373B
  8
0
 62
     0
 10
-16.316638318266389
 20
6.8570908330235216
 30
0.0
 11
-16.316638318266389
 21
6.8570908330235216
 31
0.0
  0
LINE
  5
5373C
  8
0
 62
     0
 10
-16.382929579002631
 20
6.790799572287284
 30
0.0
 11
-16.382929579002631
 21
6.790799572287284
 31
0.0
  0
LINE
  5
5373D
  8
0
 62
     0
 10
-16.449220839738871
 20
6.7245083115510447
 30
0.0
 11
-16.449220839738871
 21
6.7245083115510447
 31
0.0
  0
LINE
  5
5373E
  8
0
 62
     0
 10
-16.51551210047511
 20
6.6582170508148071
 30
0.0
 11
-16.51551210047511
 21
6.6582170508148071
 31
0.0
  0
LINE
  5
5373F
  8
0
 62
     0
 10
-18.172793618881069
 20
5.00093553240883
 30
0.0
 11
-18.172793618881069
 21
5.00093553240883
 31
0.0
  0
LINE
  5
53740
  8
0
 62
     0
 10
-18.239084879617309
 20
4.9346442716725907
 30
0.0
 11
-18.239084879617309
 21
4.9346442716725907
 31
0.0
  0
LINE
  5
53741
  8
0
 62
     0
 10
-18.305376140353552
 20
4.8683530109363531
 30
0.0
 11
-18.305376140353552
 21
4.8683530109363531
 31
0.0
  0
LINE
  5
53742
  8
0
 62
     0
 10
-18.371667401089791
 20
4.8020617502001137
 30
0.0
 11
-18.371667401089791
 21
4.8020617502001137
 31
0.0
  0
LINE
  5
53743
  8
0
 62
     0
 10
-18.43795866182603
 20
4.7357704894638761
 30
0.0
 11
-18.43795866182603
 21
4.7357704894638761
 31
0.0
  0
LINE
  5
53744
  8
0
 62
     0
 10
-18.50424992256227
 20
4.6694792287276368
 30
0.0
 11
-18.50424992256227
 21
4.6694792287276368
 31
0.0
  0
LINE
  5
53745
  8
0
 62
     0
 10
-18.570541183298509
 20
4.6031879679913992
 30
0.0
 11
-18.570541183298509
 21
4.6031879679913992
 31
0.0
  0
LINE
  5
53746
  8
0
 62
     0
 10
-18.636832444034749
 20
4.5368967072551598
 30
0.0
 11
-18.636832444034749
 21
4.5368967072551598
 31
0.0
  0
LINE
  5
53747
  8
0
 62
     0
 10
-18.703123704770992
 20
4.4706054465189222
 30
0.0
 11
-18.703123704770992
 21
4.4706054465189222
 31
0.0
  0
LINE
  5
53748
  8
0
 62
     0
 10
-18.76941496550722
 20
4.4043141857826829
 30
0.0
 11
-18.76941496550722
 21
4.4043141857826829
 31
0.0
  0
LINE
  5
53749
  8
0
 62
     0
 10
-18.83570622624347
 20
4.3380229250464453
 30
0.0
 11
-18.83570622624347
 21
4.3380229250464453
 31
0.0
  0
LINE
  5
5374A
  8
0
 62
     0
 10
-18.901997486979699
 20
4.2717316643102059
 30
0.0
 11
-18.901997486979699
 21
4.2717316643102059
 31
0.0
  0
LINE
  5
5374B
  8
0
 62
     0
 10
-18.968288747715938
 20
4.2054404035739683
 30
0.0
 11
-18.968288747715938
 21
4.2054404035739683
 31
0.0
  0
LINE
  5
5374C
  8
0
 62
     0
 10
-19.034580008452181
 20
4.1391491428377289
 30
0.0
 11
-19.034580008452181
 21
4.1391491428377289
 31
0.0
  0
LINE
  5
5374D
  8
0
 62
     0
 10
-19.100871269188421
 20
4.0728578821014914
 30
0.0
 11
-19.100871269188421
 21
4.0728578821014914
 31
0.0
  0
LINE
  5
5374E
  8
0
 62
     0
 10
-19.16716252992466
 20
4.006566621365252
 30
0.0
 11
-19.16716252992466
 21
4.006566621365252
 31
0.0
  0
LINE
  5
5374F
  8
0
 62
     0
 10
-19.233453790660899
 20
3.940275360629014
 30
0.0
 11
-19.233453790660899
 21
3.940275360629014
 31
0.0
  0
LINE
  5
53750
  8
0
 62
     0
 10
-19.299745051397139
 20
3.873984099892775
 30
0.0
 11
-19.299745051397139
 21
3.873984099892775
 31
0.0
  0
LINE
  5
53751
  8
0
 62
     0
 10
-16.416075209370749
 20
6.8902364633916431
 30
0.0
 11
-16.416075209370749
 21
6.8902364633916431
 31
0.0
  0
LINE
  5
53752
  8
0
 62
     0
 10
-16.482366470106989
 20
6.8239452026554037
 30
0.0
 11
-16.482366470106989
 21
6.8239452026554037
 31
0.0
  0
LINE
  5
53753
  8
0
 62
     0
 10
-16.548657730843232
 20
6.7576539419191661
 30
0.0
 11
-16.548657730843232
 21
6.7576539419191661
 31
0.0
  0
LINE
  5
53754
  8
0
 62
     0
 10
-16.614948991579471
 20
6.6913626811829268
 30
0.0
 11
-16.614948991579471
 21
6.6913626811829268
 31
0.0
  0
LINE
  5
53755
  8
0
 62
     0
 10
-16.68124025231571
 20
6.6250714204466892
 30
0.0
 11
-16.68124025231571
 21
6.6250714204466892
 31
0.0
  0
LINE
  5
53756
  8
0
 62
     0
 10
-16.74753151305195
 20
6.5587801597104498
 30
0.0
 11
-16.74753151305195
 21
6.5587801597104498
 31
0.0
  0
LINE
  5
53757
  8
0
 62
     0
 10
-16.813822773788189
 20
6.4924888989742122
 30
0.0
 11
-16.813822773788189
 21
6.4924888989742122
 31
0.0
  0
LINE
  5
53758
  8
0
 62
     0
 10
-18.073356727776709
 20
5.2329549449856652
 30
0.0
 11
-18.073356727776709
 21
5.2329549449856652
 31
0.0
  0
LINE
  5
53759
  8
0
 62
     0
 10
-18.139647988512952
 20
5.1666636842494258
 30
0.0
 11
-18.139647988512952
 21
5.1666636842494258
 31
0.0
  0
LINE
  5
5375A
  8
0
 62
     0
 10
-18.205939249249191
 20
5.1003724235131882
 30
0.0
 11
-18.205939249249191
 21
5.1003724235131882
 31
0.0
  0
LINE
  5
5375B
  8
0
 62
     0
 10
-18.27223050998543
 20
5.0340811627769488
 30
0.0
 11
-18.27223050998543
 21
5.0340811627769488
 31
0.0
  0
LINE
  5
5375C
  8
0
 62
     0
 10
-18.33852177072167
 20
4.9677899020407112
 30
0.0
 11
-18.33852177072167
 21
4.9677899020407112
 31
0.0
  0
LINE
  5
5375D
  8
0
 62
     0
 10
-18.404813031457909
 20
4.9014986413044719
 30
0.0
 11
-18.404813031457909
 21
4.9014986413044719
 31
0.0
  0
LINE
  5
5375E
  8
0
 62
     0
 10
-18.471104292194148
 20
4.8352073805682343
 30
0.0
 11
-18.471104292194148
 21
4.8352073805682343
 31
0.0
  0
LINE
  5
5375F
  8
0
 62
     0
 10
-18.537395552930391
 20
4.7689161198319949
 30
0.0
 11
-18.537395552930391
 21
4.7689161198319949
 31
0.0
  0
LINE
  5
53760
  8
0
 62
     0
 10
-18.603686813666631
 20
4.7026248590957573
 30
0.0
 11
-18.603686813666631
 21
4.7026248590957573
 31
0.0
  0
LINE
  5
53761
  8
0
 62
     0
 10
-18.66997807440287
 20
4.636333598359518
 30
0.0
 11
-18.66997807440287
 21
4.636333598359518
 31
0.0
  0
LINE
  5
53762
  8
0
 62
     0
 10
-18.736269335139109
 20
4.5700423376232804
 30
0.0
 11
-18.736269335139109
 21
4.5700423376232804
 31
0.0
  0
LINE
  5
53763
  8
0
 62
     0
 10
-18.802560595875349
 20
4.503751076887041
 30
0.0
 11
-18.802560595875349
 21
4.503751076887041
 31
0.0
  0
LINE
  5
53764
  8
0
 62
     0
 10
-18.868851856611581
 20
4.4374598161508034
 30
0.0
 11
-18.868851856611581
 21
4.4374598161508034
 31
0.0
  0
LINE
  5
53765
  8
0
 62
     0
 10
-18.935143117347831
 20
4.3711685554145641
 30
0.0
 11
-18.935143117347831
 21
4.3711685554145641
 31
0.0
  0
LINE
  5
53766
  8
0
 62
     0
 10
-19.00143437808407
 20
4.3048772946783256
 30
0.0
 11
-19.00143437808407
 21
4.3048772946783256
 31
0.0
  0
LINE
  5
53767
  8
0
 62
     0
 10
-19.067725638820299
 20
4.2385860339420871
 30
0.0
 11
-19.067725638820299
 21
4.2385860339420871
 31
0.0
  0
LINE
  5
53768
  8
0
 62
     0
 10
-19.134016899556539
 20
4.1722947732058486
 30
0.0
 11
-19.134016899556539
 21
4.1722947732058486
 31
0.0
  0
LINE
  5
53769
  8
0
 62
     0
 10
-19.200308160292781
 20
4.106003512469611
 30
0.0
 11
-19.200308160292781
 21
4.106003512469611
 31
0.0
  0
LINE
  5
5376A
  8
0
 62
     0
 10
-19.266599421029021
 20
4.0397122517333717
 30
0.0
 11
-19.266599421029021
 21
4.0397122517333717
 31
0.0
  0
LINE
  5
5376B
  8
0
 62
     0
 10
-19.33289068176526
 20
3.9734209909971341
 30
0.0
 11
-19.33289068176526
 21
3.9734209909971341
 31
0.0
  0
LINE
  5
5376C
  8
0
 62
     0
 10
-19.3991819425015
 20
3.9071297302608952
 30
0.0
 11
-19.3991819425015
 21
3.9071297302608952
 31
0.0
  0
LINE
  5
5376D
  8
0
 62
     0
 10
-17.045842186365022
 20
6.3930520078698514
 30
0.0
 11
-17.045842186365022
 21
6.3930520078698514
 31
0.0
  0
LINE
  5
5376E
  8
0
 62
     0
 10
-17.112133447101261
 20
6.326760747133612
 30
0.0
 11
-17.112133447101261
 21
6.326760747133612
 31
0.0
  0
LINE
  5
5376F
  8
0
 62
     0
 10
-17.1784247078375
 20
6.2604694863973744
 30
0.0
 11
-17.1784247078375
 21
6.2604694863973744
 31
0.0
  0
LINE
  5
53770
  8
0
 62
     0
 10
-16.51551210047511
 20
6.9233820937597601
 30
0.0
 11
-16.51551210047511
 21
6.9233820937597601
 31
0.0
  0
LINE
  5
53771
  8
0
 62
     0
 10
-16.58180336121135
 20
6.8570908330235216
 30
0.0
 11
-16.58180336121135
 21
6.8570908330235216
 31
0.0
  0
LINE
  5
53772
  8
0
 62
     0
 10
-16.648094621947589
 20
6.790799572287284
 30
0.0
 11
-16.648094621947589
 21
6.790799572287284
 31
0.0
  0
LINE
  5
53773
  8
0
 62
     0
 10
-16.714385882683828
 20
6.7245083115510447
 30
0.0
 11
-16.714385882683828
 21
6.7245083115510447
 31
0.0
  0
LINE
  5
53774
  8
0
 62
     0
 10
-16.780677143420071
 20
6.6582170508148071
 30
0.0
 11
-16.780677143420071
 21
6.6582170508148071
 31
0.0
  0
LINE
  5
53775
  8
0
 62
     0
 10
-16.846968404156311
 20
6.5919257900785677
 30
0.0
 11
-16.846968404156311
 21
6.5919257900785677
 31
0.0
  0
LINE
  5
53776
  8
0
 62
     0
 10
-16.913259664892539
 20
6.5256345293423301
 30
0.0
 11
-16.913259664892539
 21
6.5256345293423301
 31
0.0
  0
LINE
  5
53777
  8
0
 62
     0
 10
-17.841337315199869
 20
5.5975568790349772
 30
0.0
 11
-17.841337315199869
 21
5.5975568790349772
 31
0.0
  0
LINE
  5
53778
  8
0
 62
     0
 10
-17.907628575936108
 20
5.5312656182987379
 30
0.0
 11
-17.907628575936108
 21
5.5312656182987379
 31
0.0
  0
LINE
  5
53779
  8
0
 62
     0
 10
-17.973919836672351
 20
5.4649743575625003
 30
0.0
 11
-17.973919836672351
 21
5.4649743575625003
 31
0.0
  0
LINE
  5
5377A
  8
0
 62
     0
 10
-18.040211097408591
 20
5.3986830968262609
 30
0.0
 11
-18.040211097408591
 21
5.3986830968262609
 31
0.0
  0
LINE
  5
5377B
  8
0
 62
     0
 10
-18.10650235814483
 20
5.3323918360900233
 30
0.0
 11
-18.10650235814483
 21
5.3323918360900233
 31
0.0
  0
LINE
  5
5377C
  8
0
 62
     0
 10
-18.172793618881069
 20
5.266100575353784
 30
0.0
 11
-18.172793618881069
 21
5.266100575353784
 31
0.0
  0
LINE
  5
5377D
  8
0
 62
     0
 10
-18.239084879617309
 20
5.1998093146175464
 30
0.0
 11
-18.239084879617309
 21
5.1998093146175464
 31
0.0
  0
LINE
  5
5377E
  8
0
 62
     0
 10
-18.305376140353552
 20
5.133518053881307
 30
0.0
 11
-18.305376140353552
 21
5.133518053881307
 31
0.0
  0
LINE
  5
5377F
  8
0
 62
     0
 10
-18.371667401089791
 20
5.0672267931450694
 30
0.0
 11
-18.371667401089791
 21
5.0672267931450694
 31
0.0
  0
LINE
  5
53780
  8
0
 62
     0
 10
-18.43795866182603
 20
5.00093553240883
 30
0.0
 11
-18.43795866182603
 21
5.00093553240883
 31
0.0
  0
LINE
  5
53781
  8
0
 62
     0
 10
-18.50424992256227
 20
4.9346442716725916
 30
0.0
 11
-18.50424992256227
 21
4.9346442716725916
 31
0.0
  0
LINE
  5
53782
  8
0
 62
     0
 10
-18.570541183298509
 20
4.8683530109363531
 30
0.0
 11
-18.570541183298509
 21
4.8683530109363531
 31
0.0
  0
LINE
  5
53783
  8
0
 62
     0
 10
-18.636832444034749
 20
4.8020617502001146
 30
0.0
 11
-18.636832444034749
 21
4.8020617502001146
 31
0.0
  0
LINE
  5
53784
  8
0
 62
     0
 10
-18.703123704770992
 20
4.735770489463877
 30
0.0
 11
-18.703123704770992
 21
4.735770489463877
 31
0.0
  0
LINE
  5
53785
  8
0
 62
     0
 10
-18.76941496550722
 20
4.6694792287276377
 30
0.0
 11
-18.76941496550722
 21
4.6694792287276377
 31
0.0
  0
LINE
  5
53786
  8
0
 62
     0
 10
-18.83570622624347
 20
4.6031879679914001
 30
0.0
 11
-18.83570622624347
 21
4.6031879679914001
 31
0.0
  0
LINE
  5
53787
  8
0
 62
     0
 10
-18.901997486979699
 20
4.5368967072551607
 30
0.0
 11
-18.901997486979699
 21
4.5368967072551607
 31
0.0
  0
LINE
  5
53788
  8
0
 62
     0
 10
-18.968288747715938
 20
4.4706054465189231
 30
0.0
 11
-18.968288747715938
 21
4.4706054465189231
 31
0.0
  0
LINE
  5
53789
  8
0
 62
     0
 10
-19.034580008452181
 20
4.4043141857826837
 30
0.0
 11
-19.034580008452181
 21
4.4043141857826837
 31
0.0
  0
LINE
  5
5378A
  8
0
 62
     0
 10
-19.100871269188421
 20
4.3380229250464462
 30
0.0
 11
-19.100871269188421
 21
4.3380229250464462
 31
0.0
  0
LINE
  5
5378B
  8
0
 62
     0
 10
-19.16716252992466
 20
4.2717316643102068
 30
0.0
 11
-19.16716252992466
 21
4.2717316643102068
 31
0.0
  0
LINE
  5
5378C
  8
0
 62
     0
 10
-19.233453790660899
 20
4.2054404035739692
 30
0.0
 11
-19.233453790660899
 21
4.2054404035739692
 31
0.0
  0
LINE
  5
5378D
  8
0
 62
     0
 10
-19.299745051397139
 20
4.1391491428377298
 30
0.0
 11
-19.299745051397139
 21
4.1391491428377298
 31
0.0
  0
LINE
  5
5378E
  8
0
 62
     0
 10
-19.366036312133382
 20
4.0728578821014922
 30
0.0
 11
-19.366036312133382
 21
4.0728578821014922
 31
0.0
  0
LINE
  5
5378F
  8
0
 62
     0
 10
-19.432327572869621
 20
4.0065666213652529
 30
0.0
 11
-19.432327572869621
 21
4.0065666213652529
 31
0.0
  0
LINE
  5
53790
  8
0
 62
     0
 10
-16.614948991579471
 20
6.956527724127878
 30
0.0
 11
-16.614948991579471
 21
6.956527724127878
 31
0.0
  0
LINE
  5
53791
  8
0
 62
     0
 10
-16.68124025231571
 20
6.8902364633916386
 30
0.0
 11
-16.68124025231571
 21
6.8902364633916386
 31
0.0
  0
LINE
  5
53792
  8
0
 62
     0
 10
-16.747531513051939
 20
6.8239452026554011
 30
0.0
 11
-16.747531513051939
 21
6.8239452026554011
 31
0.0
  0
LINE
  5
53793
  8
0
 62
     0
 10
-16.813822773788178
 20
6.7576539419191617
 30
0.0
 11
-16.813822773788178
 21
6.7576539419191617
 31
0.0
  0
LINE
  5
53794
  8
0
 62
     0
 10
-16.880114034524421
 20
6.6913626811829241
 30
0.0
 11
-16.880114034524421
 21
6.6913626811829241
 31
0.0
  0
LINE
  5
53795
  8
0
 62
     0
 10
-16.946405295260661
 20
6.6250714204466847
 30
0.0
 11
-16.946405295260661
 21
6.6250714204466847
 31
0.0
  0
LINE
  5
53796
  8
0
 62
     0
 10
-17.0126965559969
 20
6.5587801597104471
 30
0.0
 11
-17.0126965559969
 21
6.5587801597104471
 31
0.0
  0
LINE
  5
53797
  8
0
 62
     0
 10
-17.145279077469361
 20
6.4261976382379578
 30
0.0
 11
-17.145279077469361
 21
6.4261976382379578
 31
0.0
  0
LINE
  5
53798
  8
0
 62
     0
 10
-17.2115703382056
 20
6.3599063775017202
 30
0.0
 11
-17.2115703382056
 21
6.3599063775017202
 31
0.0
  0
LINE
  5
53799
  8
0
 62
     0
 10
-17.27786159894184
 20
6.2936151167654808
 30
0.0
 11
-17.27786159894184
 21
6.2936151167654808
 31
0.0
  0
LINE
  5
5379A
  8
0
 62
     0
 10
-17.344152859678079
 20
6.2273238560292432
 30
0.0
 11
-17.344152859678079
 21
6.2273238560292432
 31
0.0
  0
LINE
  5
5379B
  8
0
 62
     0
 10
-17.410444120414319
 20
6.1610325952930038
 30
0.0
 11
-17.410444120414319
 21
6.1610325952930038
 31
0.0
  0
LINE
  5
5379C
  8
0
 62
     0
 10
-17.476735381150561
 20
6.0947413345567663
 30
0.0
 11
-17.476735381150561
 21
6.0947413345567663
 31
0.0
  0
LINE
  5
5379D
  8
0
 62
     0
 10
-17.543026641886801
 20
6.0284500738205269
 30
0.0
 11
-17.543026641886801
 21
6.0284500738205269
 31
0.0
  0
LINE
  5
5379E
  8
0
 62
     0
 10
-17.60931790262304
 20
5.9621588130842893
 30
0.0
 11
-17.60931790262304
 21
5.9621588130842893
 31
0.0
  0
LINE
  5
5379F
  8
0
 62
     0
 10
-17.675609163359269
 20
5.8958675523480499
 30
0.0
 11
-17.675609163359269
 21
5.8958675523480499
 31
0.0
  0
LINE
  5
537A0
  8
0
 62
     0
 10
-17.741900424095508
 20
5.8295762916118123
 30
0.0
 11
-17.741900424095508
 21
5.8295762916118123
 31
0.0
  0
LINE
  5
537A1
  8
0
 62
     0
 10
-17.808191684831751
 20
5.763285030875573
 30
0.0
 11
-17.808191684831751
 21
5.763285030875573
 31
0.0
  0
LINE
  5
537A2
  8
0
 62
     0
 10
-17.874482945567991
 20
5.6969937701393354
 30
0.0
 11
-17.874482945567991
 21
5.6969937701393354
 31
0.0
  0
LINE
  5
537A3
  8
0
 62
     0
 10
-17.94077420630423
 20
5.630702509403096
 30
0.0
 11
-17.94077420630423
 21
5.630702509403096
 31
0.0
  0
LINE
  5
537A4
  8
0
 62
     0
 10
-18.007065467040469
 20
5.5644112486668584
 30
0.0
 11
-18.007065467040469
 21
5.5644112486668584
 31
0.0
  0
LINE
  5
537A5
  8
0
 62
     0
 10
-18.073356727776709
 20
5.4981199879306191
 30
0.0
 11
-18.073356727776709
 21
5.4981199879306191
 31
0.0
  0
LINE
  5
537A6
  8
0
 62
     0
 10
-18.139647988512952
 20
5.4318287271943806
 30
0.0
 11
-18.139647988512952
 21
5.4318287271943806
 31
0.0
  0
LINE
  5
537A7
  8
0
 62
     0
 10
-18.205939249249191
 20
5.365537466458143
 30
0.0
 11
-18.205939249249191
 21
5.365537466458143
 31
0.0
  0
LINE
  5
537A8
  8
0
 62
     0
 10
-18.27223050998543
 20
5.2992462057219036
 30
0.0
 11
-18.27223050998543
 21
5.2992462057219036
 31
0.0
  0
LINE
  5
537A9
  8
0
 62
     0
 10
-18.33852177072167
 20
5.232954944985666
 30
0.0
 11
-18.33852177072167
 21
5.232954944985666
 31
0.0
  0
LINE
  5
537AA
  8
0
 62
     0
 10
-18.404813031457909
 20
5.1666636842494267
 30
0.0
 11
-18.404813031457909
 21
5.1666636842494267
 31
0.0
  0
LINE
  5
537AB
  8
0
 62
     0
 10
-18.471104292194148
 20
5.1003724235131891
 30
0.0
 11
-18.471104292194148
 21
5.1003724235131891
 31
0.0
  0
LINE
  5
537AC
  8
0
 62
     0
 10
-18.537395552930391
 20
5.0340811627769497
 30
0.0
 11
-18.537395552930391
 21
5.0340811627769497
 31
0.0
  0
LINE
  5
537AD
  8
0
 62
     0
 10
-18.603686813666631
 20
4.9677899020407121
 30
0.0
 11
-18.603686813666631
 21
4.9677899020407121
 31
0.0
  0
LINE
  5
537AE
  8
0
 62
     0
 10
-18.669978074402859
 20
4.9014986413044728
 30
0.0
 11
-18.669978074402859
 21
4.9014986413044728
 31
0.0
  0
LINE
  5
537AF
  8
0
 62
     0
 10
-18.736269335139099
 20
4.8352073805682352
 30
0.0
 11
-18.736269335139099
 21
4.8352073805682352
 31
0.0
  0
LINE
  5
537B0
  8
0
 62
     0
 10
-18.802560595875342
 20
4.7689161198319958
 30
0.0
 11
-18.802560595875342
 21
4.7689161198319958
 31
0.0
  0
LINE
  5
537B1
  8
0
 62
     0
 10
-18.868851856611581
 20
4.7026248590957582
 30
0.0
 11
-18.868851856611581
 21
4.7026248590957582
 31
0.0
  0
LINE
  5
537B2
  8
0
 62
     0
 10
-18.93514311734782
 20
4.6363335983595189
 30
0.0
 11
-18.93514311734782
 21
4.6363335983595189
 31
0.0
  0
LINE
  5
537B3
  8
0
 62
     0
 10
-19.00143437808406
 20
4.5700423376232813
 30
0.0
 11
-19.00143437808406
 21
4.5700423376232813
 31
0.0
  0
LINE
  5
537B4
  8
0
 62
     0
 10
-19.067725638820299
 20
4.5037510768870419
 30
0.0
 11
-19.067725638820299
 21
4.5037510768870419
 31
0.0
  0
LINE
  5
537B5
  8
0
 62
     0
 10
-19.134016899556539
 20
4.4374598161508043
 30
0.0
 11
-19.134016899556539
 21
4.4374598161508043
 31
0.0
  0
LINE
  5
537B6
  8
0
 62
     0
 10
-19.200308160292781
 20
4.3711685554145649
 30
0.0
 11
-19.200308160292781
 21
4.3711685554145649
 31
0.0
  0
LINE
  5
537B7
  8
0
 62
     0
 10
-19.266599421029021
 20
4.3048772946783274
 30
0.0
 11
-19.266599421029021
 21
4.3048772946783274
 31
0.0
  0
LINE
  5
537B8
  8
0
 62
     0
 10
-19.33289068176526
 20
4.238586033942088
 30
0.0
 11
-19.33289068176526
 21
4.238586033942088
 31
0.0
  0
LINE
  5
537B9
  8
0
 62
     0
 10
-19.3991819425015
 20
4.1722947732058504
 30
0.0
 11
-19.3991819425015
 21
4.1722947732058504
 31
0.0
  0
LINE
  5
537BA
  8
0
 62
     0
 10
-19.465473203237739
 20
4.106003512469611
 30
0.0
 11
-19.465473203237739
 21
4.106003512469611
 31
0.0
  0
LINE
  5
537BB
  8
0
 62
     0
 10
-19.531764463973978
 20
4.0397122517333726
 30
0.0
 11
-19.531764463973978
 21
4.0397122517333726
 31
0.0
  0
LINE
  5
537BC
  8
0
 62
     0
 10
-16.648094621947578
 20
7.0559646152322388
 30
0.0
 11
-16.648094621947578
 21
7.0559646152322388
 31
0.0
  0
LINE
  5
537BD
  8
0
 62
     0
 10
-16.714385882683821
 20
6.9896733544960012
 30
0.0
 11
-16.714385882683821
 21
6.9896733544960012
 31
0.0
  0
LINE
  5
537BE
  8
0
 62
     0
 10
-16.780677143420061
 20
6.9233820937597619
 30
0.0
 11
-16.780677143420061
 21
6.9233820937597619
 31
0.0
  0
LINE
  5
537BF
  8
0
 62
     0
 10
-16.8469684041563
 20
6.8570908330235243
 30
0.0
 11
-16.8469684041563
 21
6.8570908330235243
 31
0.0
  0
LINE
  5
537C0
  8
0
 62
     0
 10
-16.913259664892539
 20
6.7907995722872849
 30
0.0
 11
-16.913259664892539
 21
6.7907995722872849
 31
0.0
  0
LINE
  5
537C1
  8
0
 62
     0
 10
-16.979550925628779
 20
6.7245083115510473
 30
0.0
 11
-16.979550925628779
 21
6.7245083115510473
 31
0.0
  0
LINE
  5
537C2
  8
0
 62
     0
 10
-17.045842186365022
 20
6.658217050814808
 30
0.0
 11
-17.045842186365022
 21
6.658217050814808
 31
0.0
  0
LINE
  5
537C3
  8
0
 62
     0
 10
-17.112133447101261
 20
6.5919257900785704
 30
0.0
 11
-17.112133447101261
 21
6.5919257900785704
 31
0.0
  0
LINE
  5
537C4
  8
0
 62
     0
 10
-17.244715968573718
 20
6.4593432686060801
 30
0.0
 11
-17.244715968573718
 21
6.4593432686060801
 31
0.0
  0
LINE
  5
537C5
  8
0
 62
     0
 10
-17.311007229309961
 20
6.3930520078698407
 30
0.0
 11
-17.311007229309961
 21
6.3930520078698407
 31
0.0
  0
LINE
  5
537C6
  8
0
 62
     0
 10
-17.377298490046201
 20
6.3267607471336031
 30
0.0
 11
-17.377298490046201
 21
6.3267607471336031
 31
0.0
  0
LINE
  5
537C7
  8
0
 62
     0
 10
-17.44358975078244
 20
6.2604694863973638
 30
0.0
 11
-17.44358975078244
 21
6.2604694863973638
 31
0.0
  0
LINE
  5
537C8
  8
0
 62
     0
 10
-17.509881011518679
 20
6.1941782256611262
 30
0.0
 11
-17.509881011518679
 21
6.1941782256611262
 31
0.0
  0
LINE
  5
537C9
  8
0
 62
     0
 10
-17.576172272254919
 20
6.1278869649248868
 30
0.0
 11
-17.576172272254919
 21
6.1278869649248868
 31
0.0
  0
LINE
  5
537CA
  8
0
 62
     0
 10
-17.642463532991162
 20
6.0615957041886492
 30
0.0
 11
-17.642463532991162
 21
6.0615957041886492
 31
0.0
  0
LINE
  5
537CB
  8
0
 62
     0
 10
-17.708754793727401
 20
5.9953044434524099
 30
0.0
 11
-17.708754793727401
 21
5.9953044434524099
 31
0.0
  0
LINE
  5
537CC
  8
0
 62
     0
 10
-17.77504605446363
 20
5.9290131827161723
 30
0.0
 11
-17.77504605446363
 21
5.9290131827161723
 31
0.0
  0
LINE
  5
537CD
  8
0
 62
     0
 10
-17.841337315199869
 20
5.8627219219799329
 30
0.0
 11
-17.841337315199869
 21
5.8627219219799329
 31
0.0
  0
LINE
  5
537CE
  8
0
 62
     0
 10
-17.907628575936108
 20
5.7964306612436953
 30
0.0
 11
-17.907628575936108
 21
5.7964306612436953
 31
0.0
  0
LINE
  5
537CF
  8
0
 62
     0
 10
-17.973919836672351
 20
5.730139400507456
 30
0.0
 11
-17.973919836672351
 21
5.730139400507456
 31
0.0
  0
LINE
  5
537D0
  8
0
 62
     0
 10
-18.040211097408591
 20
5.6638481397712184
 30
0.0
 11
-18.040211097408591
 21
5.6638481397712184
 31
0.0
  0
LINE
  5
537D1
  8
0
 62
     0
 10
-18.10650235814483
 20
5.597556879034979
 30
0.0
 11
-18.10650235814483
 21
5.597556879034979
 31
0.0
  0
LINE
  5
537D2
  8
0
 62
     0
 10
-18.172793618881069
 20
5.5312656182987414
 30
0.0
 11
-18.172793618881069
 21
5.5312656182987414
 31
0.0
  0
LINE
  5
537D3
  8
0
 62
     0
 10
-18.239084879617309
 20
5.464974357562502
 30
0.0
 11
-18.239084879617309
 21
5.464974357562502
 31
0.0
  0
LINE
  5
537D4
  8
0
 62
     0
 10
-18.305376140353552
 20
5.3986830968262636
 30
0.0
 11
-18.305376140353552
 21
5.3986830968262636
 31
0.0
  0
LINE
  5
537D5
  8
0
 62
     0
 10
-18.371667401089791
 20
5.3323918360900251
 30
0.0
 11
-18.371667401089791
 21
5.3323918360900251
 31
0.0
  0
LINE
  5
537D6
  8
0
 62
     0
 10
-18.43795866182603
 20
5.2661005753537866
 30
0.0
 11
-18.43795866182603
 21
5.2661005753537866
 31
0.0
  0
LINE
  5
537D7
  8
0
 62
     0
 10
-18.50424992256227
 20
5.199809314617549
 30
0.0
 11
-18.50424992256227
 21
5.199809314617549
 31
0.0
  0
LINE
  5
537D8
  8
0
 62
     0
 10
-18.570541183298509
 20
5.1335180538813097
 30
0.0
 11
-18.570541183298509
 21
5.1335180538813097
 31
0.0
  0
LINE
  5
537D9
  8
0
 62
     0
 10
-18.636832444034749
 20
5.0672267931450721
 30
0.0
 11
-18.636832444034749
 21
5.0672267931450721
 31
0.0
  0
LINE
  5
537DA
  8
0
 62
     0
 10
-18.703123704770992
 20
5.0009355324088327
 30
0.0
 11
-18.703123704770992
 21
5.0009355324088327
 31
0.0
  0
LINE
  5
537DB
  8
0
 62
     0
 10
-18.76941496550722
 20
4.9346442716725951
 30
0.0
 11
-18.76941496550722
 21
4.9346442716725951
 31
0.0
  0
LINE
  5
537DC
  8
0
 62
     0
 10
-18.83570622624347
 20
4.8683530109363558
 30
0.0
 11
-18.83570622624347
 21
4.8683530109363558
 31
0.0
  0
LINE
  5
537DD
  8
0
 62
     0
 10
-18.901997486979699
 20
4.8020617502001182
 30
0.0
 11
-18.901997486979699
 21
4.8020617502001182
 31
0.0
  0
LINE
  5
537DE
  8
0
 62
     0
 10
-18.968288747715938
 20
4.7357704894638788
 30
0.0
 11
-18.968288747715938
 21
4.7357704894638788
 31
0.0
  0
LINE
  5
537DF
  8
0
 62
     0
 10
-19.034580008452181
 20
4.6694792287276412
 30
0.0
 11
-19.034580008452181
 21
4.6694792287276412
 31
0.0
  0
LINE
  5
537E0
  8
0
 62
     0
 10
-19.100871269188421
 20
4.6031879679914018
 30
0.0
 11
-19.100871269188421
 21
4.6031879679914018
 31
0.0
  0
LINE
  5
537E1
  8
0
 62
     0
 10
-19.16716252992466
 20
4.5368967072551643
 30
0.0
 11
-19.16716252992466
 21
4.5368967072551643
 31
0.0
  0
LINE
  5
537E2
  8
0
 62
     0
 10
-19.233453790660899
 20
4.4706054465189249
 30
0.0
 11
-19.233453790660899
 21
4.4706054465189249
 31
0.0
  0
LINE
  5
537E3
  8
0
 62
     0
 10
-19.299745051397139
 20
4.4043141857826873
 30
0.0
 11
-19.299745051397139
 21
4.4043141857826873
 31
0.0
  0
LINE
  5
537E4
  8
0
 62
     0
 10
-19.366036312133382
 20
4.3380229250464479
 30
0.0
 11
-19.366036312133382
 21
4.3380229250464479
 31
0.0
  0
LINE
  5
537E5
  8
0
 62
     0
 10
-19.432327572869621
 20
4.2717316643102103
 30
0.0
 11
-19.432327572869621
 21
4.2717316643102103
 31
0.0
  0
LINE
  5
537E6
  8
0
 62
     0
 10
-19.49861883360586
 20
4.205440403573971
 30
0.0
 11
-19.49861883360586
 21
4.205440403573971
 31
0.0
  0
LINE
  5
537E7
  8
0
 62
     0
 10
-19.5649100943421
 20
4.1391491428377334
 30
0.0
 11
-19.5649100943421
 21
4.1391491428377334
 31
0.0
  0
LINE
  5
537E8
  8
0
 62
     0
 10
-19.631201355078339
 20
4.072857882101494
 30
0.0
 11
-19.631201355078339
 21
4.072857882101494
 31
0.0
  0
LINE
  5
537E9
  8
0
 62
     0
 10
-16.747531513051939
 20
7.0891102456003576
 30
0.0
 11
-16.747531513051939
 21
7.0891102456003576
 31
0.0
  0
LINE
  5
537EA
  8
0
 62
     0
 10
-16.813822773788178
 20
7.02281898486412
 30
0.0
 11
-16.813822773788178
 21
7.02281898486412
 31
0.0
  0
LINE
  5
537EB
  8
0
 62
     0
 10
-16.880114034524421
 20
6.9565277241278807
 30
0.0
 11
-16.880114034524421
 21
6.9565277241278807
 31
0.0
  0
LINE
  5
537EC
  8
0
 62
     0
 10
-16.946405295260661
 20
6.8902364633916431
 30
0.0
 11
-16.946405295260661
 21
6.8902364633916431
 31
0.0
  0
LINE
  5
537ED
  8
0
 62
     0
 10
-17.0126965559969
 20
6.8239452026554037
 30
0.0
 11
-17.0126965559969
 21
6.8239452026554037
 31
0.0
  0
LINE
  5
537EE
  8
0
 62
     0
 10
-17.078987816733139
 20
6.7576539419191661
 30
0.0
 11
-17.078987816733139
 21
6.7576539419191661
 31
0.0
  0
LINE
  5
537EF
  8
0
 62
     0
 10
-17.145279077469379
 20
6.6913626811829268
 30
0.0
 11
-17.145279077469379
 21
6.6913626811829268
 31
0.0
  0
LINE
  5
537F0
  8
0
 62
     0
 10
-17.344152859678079
 20
6.4924888989741971
 30
0.0
 11
-17.344152859678079
 21
6.4924888989741971
 31
0.0
  0
LINE
  5
537F1
  8
0
 62
     0
 10
-17.410444120414319
 20
6.4261976382379578
 30
0.0
 11
-17.410444120414319
 21
6.4261976382379578
 31
0.0
  0
LINE
  5
537F2
  8
0
 62
     0
 10
-17.476735381150561
 20
6.3599063775017202
 30
0.0
 11
-17.476735381150561
 21
6.3599063775017202
 31
0.0
  0
LINE
  5
537F3
  8
0
 62
     0
 10
-17.543026641886801
 20
6.2936151167654808
 30
0.0
 11
-17.543026641886801
 21
6.2936151167654808
 31
0.0
  0
LINE
  5
537F4
  8
0
 62
     0
 10
-17.60931790262304
 20
6.2273238560292432
 30
0.0
 11
-17.60931790262304
 21
6.2273238560292432
 31
0.0
  0
LINE
  5
537F5
  8
0
 62
     0
 10
-17.675609163359269
 20
6.1610325952930038
 30
0.0
 11
-17.675609163359269
 21
6.1610325952930038
 31
0.0
  0
LINE
  5
537F6
  8
0
 62
     0
 10
-17.741900424095508
 20
6.0947413345567663
 30
0.0
 11
-17.741900424095508
 21
6.0947413345567663
 31
0.0
  0
LINE
  5
537F7
  8
0
 62
     0
 10
-17.808191684831751
 20
6.0284500738205269
 30
0.0
 11
-17.808191684831751
 21
6.0284500738205269
 31
0.0
  0
LINE
  5
537F8
  8
0
 62
     0
 10
-17.874482945567991
 20
5.9621588130842893
 30
0.0
 11
-17.874482945567991
 21
5.9621588130842893
 31
0.0
  0
LINE
  5
537F9
  8
0
 62
     0
 10
-17.94077420630423
 20
5.8958675523480499
 30
0.0
 11
-17.94077420630423
 21
5.8958675523480499
 31
0.0
  0
LINE
  5
537FA
  8
0
 62
     0
 10
-18.007065467040469
 20
5.8295762916118123
 30
0.0
 11
-18.007065467040469
 21
5.8295762916118123
 31
0.0
  0
LINE
  5
537FB
  8
0
 62
     0
 10
-18.073356727776709
 20
5.763285030875573
 30
0.0
 11
-18.073356727776709
 21
5.763285030875573
 31
0.0
  0
LINE
  5
537FC
  8
0
 62
     0
 10
-18.139647988512952
 20
5.6969937701393354
 30
0.0
 11
-18.139647988512952
 21
5.6969937701393354
 31
0.0
  0
LINE
  5
537FD
  8
0
 62
     0
 10
-18.205939249249191
 20
5.630702509403096
 30
0.0
 11
-18.205939249249191
 21
5.630702509403096
 31
0.0
  0
LINE
  5
537FE
  8
0
 62
     0
 10
-18.27223050998543
 20
5.5644112486668584
 30
0.0
 11
-18.27223050998543
 21
5.5644112486668584
 31
0.0
  0
LINE
  5
537FF
  8
0
 62
     0
 10
-18.33852177072167
 20
5.4981199879306191
 30
0.0
 11
-18.33852177072167
 21
5.4981199879306191
 31
0.0
  0
LINE
  5
53800
  8
0
 62
     0
 10
-18.404813031457909
 20
5.4318287271943806
 30
0.0
 11
-18.404813031457909
 21
5.4318287271943806
 31
0.0
  0
LINE
  5
53801
  8
0
 62
     0
 10
-18.471104292194148
 20
5.365537466458143
 30
0.0
 11
-18.471104292194148
 21
5.365537466458143
 31
0.0
  0
LINE
  5
53802
  8
0
 62
     0
 10
-18.537395552930391
 20
5.2992462057219036
 30
0.0
 11
-18.537395552930391
 21
5.2992462057219036
 31
0.0
  0
LINE
  5
53803
  8
0
 62
     0
 10
-18.603686813666631
 20
5.232954944985666
 30
0.0
 11
-18.603686813666631
 21
5.232954944985666
 31
0.0
  0
LINE
  5
53804
  8
0
 62
     0
 10
-18.669978074402859
 20
5.1666636842494267
 30
0.0
 11
-18.669978074402859
 21
5.1666636842494267
 31
0.0
  0
LINE
  5
53805
  8
0
 62
     0
 10
-18.736269335139099
 20
5.1003724235131891
 30
0.0
 11
-18.736269335139099
 21
5.1003724235131891
 31
0.0
  0
LINE
  5
53806
  8
0
 62
     0
 10
-18.802560595875342
 20
5.0340811627769497
 30
0.0
 11
-18.802560595875342
 21
5.0340811627769497
 31
0.0
  0
LINE
  5
53807
  8
0
 62
     0
 10
-18.868851856611581
 20
4.9677899020407121
 30
0.0
 11
-18.868851856611581
 21
4.9677899020407121
 31
0.0
  0
LINE
  5
53808
  8
0
 62
     0
 10
-18.93514311734782
 20
4.9014986413044728
 30
0.0
 11
-18.93514311734782
 21
4.9014986413044728
 31
0.0
  0
LINE
  5
53809
  8
0
 62
     0
 10
-19.00143437808406
 20
4.8352073805682352
 30
0.0
 11
-19.00143437808406
 21
4.8352073805682352
 31
0.0
  0
LINE
  5
5380A
  8
0
 62
     0
 10
-19.067725638820299
 20
4.7689161198319958
 30
0.0
 11
-19.067725638820299
 21
4.7689161198319958
 31
0.0
  0
LINE
  5
5380B
  8
0
 62
     0
 10
-19.134016899556539
 20
4.7026248590957582
 30
0.0
 11
-19.134016899556539
 21
4.7026248590957582
 31
0.0
  0
LINE
  5
5380C
  8
0
 62
     0
 10
-19.200308160292781
 20
4.6363335983595189
 30
0.0
 11
-19.200308160292781
 21
4.6363335983595189
 31
0.0
  0
LINE
  5
5380D
  8
0
 62
     0
 10
-19.266599421029021
 20
4.5700423376232813
 30
0.0
 11
-19.266599421029021
 21
4.5700423376232813
 31
0.0
  0
LINE
  5
5380E
  8
0
 62
     0
 10
-19.33289068176526
 20
4.5037510768870419
 30
0.0
 11
-19.33289068176526
 21
4.5037510768870419
 31
0.0
  0
LINE
  5
5380F
  8
0
 62
     0
 10
-19.3991819425015
 20
4.4374598161508043
 30
0.0
 11
-19.3991819425015
 21
4.4374598161508043
 31
0.0
  0
LINE
  5
53810
  8
0
 62
     0
 10
-19.465473203237739
 20
4.3711685554145649
 30
0.0
 11
-19.465473203237739
 21
4.3711685554145649
 31
0.0
  0
LINE
  5
53811
  8
0
 62
     0
 10
-19.531764463973978
 20
4.3048772946783274
 30
0.0
 11
-19.531764463973978
 21
4.3048772946783274
 31
0.0
  0
LINE
  5
53812
  8
0
 62
     0
 10
-19.598055724710221
 20
4.238586033942088
 30
0.0
 11
-19.598055724710221
 21
4.238586033942088
 31
0.0
  0
LINE
  5
53813
  8
0
 62
     0
 10
-19.66434698544645
 20
4.1722947732058504
 30
0.0
 11
-19.66434698544645
 21
4.1722947732058504
 31
0.0
  0
LINE
  5
53814
  8
0
 62
     0
 10
-19.730638246182689
 20
4.106003512469611
 30
0.0
 11
-19.730638246182689
 21
4.106003512469611
 31
0.0
  0
LINE
  5
53815
  8
0
 62
     0
 10
-16.8469684041563
 20
7.1222558759684773
 30
0.0
 11
-16.8469684041563
 21
7.1222558759684773
 31
0.0
  0
LINE
  5
53816
  8
0
 62
     0
 10
-16.913259664892539
 20
7.0559646152322379
 30
0.0
 11
-16.913259664892539
 21
7.0559646152322379
 31
0.0
  0
LINE
  5
53817
  8
0
 62
     0
 10
-16.979550925628779
 20
6.9896733544960004
 30
0.0
 11
-16.979550925628779
 21
6.9896733544960004
 31
0.0
  0
LINE
  5
53818
  8
0
 62
     0
 10
-17.045842186365022
 20
6.923382093759761
 30
0.0
 11
-17.045842186365022
 21
6.923382093759761
 31
0.0
  0
LINE
  5
53819
  8
0
 62
     0
 10
-17.112133447101261
 20
6.8570908330235234
 30
0.0
 11
-17.112133447101261
 21
6.8570908330235234
 31
0.0
  0
LINE
  5
5381A
  8
0
 62
     0
 10
-17.1784247078375
 20
6.790799572287284
 30
0.0
 11
-17.1784247078375
 21
6.790799572287284
 31
0.0
  0
LINE
  5
5381B
  8
0
 62
     0
 10
-17.24471596857374
 20
6.7245083115510456
 30
0.0
 11
-17.24471596857374
 21
6.7245083115510456
 31
0.0
  0
LINE
  5
5381C
  8
0
 62
     0
 10
-17.377298490046201
 20
6.5919257900785553
 30
0.0
 11
-17.377298490046201
 21
6.5919257900785553
 31
0.0
  0
LINE
  5
5381D
  8
0
 62
     0
 10
-17.44358975078244
 20
6.5256345293423159
 30
0.0
 11
-17.44358975078244
 21
6.5256345293423159
 31
0.0
  0
LINE
  5
5381E
  8
0
 62
     0
 10
-17.509881011518669
 20
6.4593432686060783
 30
0.0
 11
-17.509881011518669
 21
6.4593432686060783
 31
0.0
  0
LINE
  5
5381F
  8
0
 62
     0
 10
-17.576172272254912
 20
6.393052007869839
 30
0.0
 11
-17.576172272254912
 21
6.393052007869839
 31
0.0
  0
LINE
  5
53820
  8
0
 62
     0
 10
-17.642463532991151
 20
6.3267607471336014
 30
0.0
 11
-17.642463532991151
 21
6.3267607471336014
 31
0.0
  0
LINE
  5
53821
  8
0
 62
     0
 10
-17.70875479372739
 20
6.260469486397362
 30
0.0
 11
-17.70875479372739
 21
6.260469486397362
 31
0.0
  0
LINE
  5
53822
  8
0
 62
     0
 10
-17.77504605446363
 20
6.1941782256611244
 30
0.0
 11
-17.77504605446363
 21
6.1941782256611244
 31
0.0
  0
LINE
  5
53823
  8
0
 62
     0
 10
-17.841337315199869
 20
6.127886964924885
 30
0.0
 11
-17.841337315199869
 21
6.127886964924885
 31
0.0
  0
LINE
  5
53824
  8
0
 62
     0
 10
-17.907628575936108
 20
6.0615957041886466
 30
0.0
 11
-17.907628575936108
 21
6.0615957041886466
 31
0.0
  0
LINE
  5
53825
  8
0
 62
     0
 10
-17.973919836672351
 20
5.9953044434524081
 30
0.0
 11
-17.973919836672351
 21
5.9953044434524081
 31
0.0
  0
LINE
  5
53826
  8
0
 62
     0
 10
-18.040211097408591
 20
5.9290131827161696
 30
0.0
 11
-18.040211097408591
 21
5.9290131827161696
 31
0.0
  0
LINE
  5
53827
  8
0
 62
     0
 10
-18.10650235814483
 20
5.862721921979932
 30
0.0
 11
-18.10650235814483
 21
5.862721921979932
 31
0.0
  0
LINE
  5
53828
  8
0
 62
     0
 10
-18.172793618881069
 20
5.7964306612436927
 30
0.0
 11
-18.172793618881069
 21
5.7964306612436927
 31
0.0
  0
LINE
  5
53829
  8
0
 62
     0
 10
-18.239084879617309
 20
5.7301394005074551
 30
0.0
 11
-18.239084879617309
 21
5.7301394005074551
 31
0.0
  0
LINE
  5
5382A
  8
0
 62
     0
 10
-18.305376140353552
 20
5.6638481397712157
 30
0.0
 11
-18.305376140353552
 21
5.6638481397712157
 31
0.0
  0
LINE
  5
5382B
  8
0
 62
     0
 10
-18.371667401089791
 20
5.5975568790349781
 30
0.0
 11
-18.371667401089791
 21
5.5975568790349781
 31
0.0
  0
LINE
  5
5382C
  8
0
 62
     0
 10
-18.43795866182603
 20
5.5312656182987388
 30
0.0
 11
-18.43795866182603
 21
5.5312656182987388
 31
0.0
  0
LINE
  5
5382D
  8
0
 62
     0
 10
-18.504249922562259
 20
5.4649743575625012
 30
0.0
 11
-18.504249922562259
 21
5.4649743575625012
 31
0.0
  0
LINE
  5
5382E
  8
0
 62
     0
 10
-18.570541183298499
 20
5.3986830968262618
 30
0.0
 11
-18.570541183298499
 21
5.3986830968262618
 31
0.0
  0
LINE
  5
5382F
  8
0
 62
     0
 10
-18.636832444034741
 20
5.3323918360900242
 30
0.0
 11
-18.636832444034741
 21
5.3323918360900242
 31
0.0
  0
LINE
  5
53830
  8
0
 62
     0
 10
-18.703123704770981
 20
5.2661005753537848
 30
0.0
 11
-18.703123704770981
 21
5.2661005753537848
 31
0.0
  0
LINE
  5
53831
  8
0
 62
     0
 10
-18.76941496550722
 20
5.1998093146175473
 30
0.0
 11
-18.76941496550722
 21
5.1998093146175473
 31
0.0
  0
LINE
  5
53832
  8
0
 62
     0
 10
-18.83570622624346
 20
5.1335180538813079
 30
0.0
 11
-18.83570622624346
 21
5.1335180538813079
 31
0.0
  0
LINE
  5
53833
  8
0
 62
     0
 10
-18.901997486979699
 20
5.0672267931450703
 30
0.0
 11
-18.901997486979699
 21
5.0672267931450703
 31
0.0
  0
LINE
  5
53834
  8
0
 62
     0
 10
-18.968288747715938
 20
5.0009355324088309
 30
0.0
 11
-18.968288747715938
 21
5.0009355324088309
 31
0.0
  0
LINE
  5
53835
  8
0
 62
     0
 10
-19.034580008452181
 20
4.9346442716725933
 30
0.0
 11
-19.034580008452181
 21
4.9346442716725933
 31
0.0
  0
LINE
  5
53836
  8
0
 62
     0
 10
-19.100871269188421
 20
4.868353010936354
 30
0.0
 11
-19.100871269188421
 21
4.868353010936354
 31
0.0
  0
LINE
  5
53837
  8
0
 62
     0
 10
-19.16716252992466
 20
4.8020617502001164
 30
0.0
 11
-19.16716252992466
 21
4.8020617502001164
 31
0.0
  0
LINE
  5
53838
  8
0
 62
     0
 10
-19.233453790660899
 20
4.735770489463877
 30
0.0
 11
-19.233453790660899
 21
4.735770489463877
 31
0.0
  0
LINE
  5
53839
  8
0
 62
     0
 10
-19.299745051397139
 20
4.6694792287276394
 30
0.0
 11
-19.299745051397139
 21
4.6694792287276394
 31
0.0
  0
LINE
  5
5383A
  8
0
 62
     0
 10
-19.366036312133382
 20
4.6031879679914001
 30
0.0
 11
-19.366036312133382
 21
4.6031879679914001
 31
0.0
  0
LINE
  5
5383B
  8
0
 62
     0
 10
-19.432327572869621
 20
4.5368967072551616
 30
0.0
 11
-19.432327572869621
 21
4.5368967072551616
 31
0.0
  0
LINE
  5
5383C
  8
0
 62
     0
 10
-19.49861883360586
 20
4.4706054465189231
 30
0.0
 11
-19.49861883360586
 21
4.4706054465189231
 31
0.0
  0
LINE
  5
5383D
  8
0
 62
     0
 10
-19.564910094342089
 20
4.4043141857826846
 30
0.0
 11
-19.564910094342089
 21
4.4043141857826846
 31
0.0
  0
LINE
  5
5383E
  8
0
 62
     0
 10
-19.631201355078328
 20
4.338022925046447
 30
0.0
 11
-19.631201355078328
 21
4.338022925046447
 31
0.0
  0
LINE
  5
5383F
  8
0
 62
     0
 10
-19.697492615814571
 20
4.2717316643102077
 30
0.0
 11
-19.697492615814571
 21
4.2717316643102077
 31
0.0
  0
LINE
  5
53840
  8
0
 62
     0
 10
-19.763783876550811
 20
4.2054404035739701
 30
0.0
 11
-19.763783876550811
 21
4.2054404035739701
 31
0.0
  0
LINE
  5
53841
  8
0
 62
     0
 10
-16.946405295260661
 20
7.1554015063365961
 30
0.0
 11
-16.946405295260661
 21
7.1554015063365961
 31
0.0
  0
LINE
  5
53842
  8
0
 62
     0
 10
-17.0126965559969
 20
7.0891102456003567
 30
0.0
 11
-17.0126965559969
 21
7.0891102456003567
 31
0.0
  0
LINE
  5
53843
  8
0
 62
     0
 10
-17.078987816733139
 20
7.0228189848641192
 30
0.0
 11
-17.078987816733139
 21
7.0228189848641192
 31
0.0
  0
LINE
  5
53844
  8
0
 62
     0
 10
-17.145279077469379
 20
6.9565277241278798
 30
0.0
 11
-17.145279077469379
 21
6.9565277241278798
 31
0.0
  0
LINE
  5
53845
  8
0
 62
     0
 10
-17.211570338205622
 20
6.8902364633916422
 30
0.0
 11
-17.211570338205622
 21
6.8902364633916422
 31
0.0
  0
LINE
  5
53846
  8
0
 62
     0
 10
-17.277861598941861
 20
6.8239452026554028
 30
0.0
 11
-17.277861598941861
 21
6.8239452026554028
 31
0.0
  0
LINE
  5
53847
  8
0
 62
     0
 10
-17.34415285967809
 20
6.7576539419191652
 30
0.0
 11
-17.34415285967809
 21
6.7576539419191652
 31
0.0
  0
LINE
  5
53848
  8
0
 62
     0
 10
-17.476735381150561
 20
6.6250714204466741
 30
0.0
 11
-17.476735381150561
 21
6.6250714204466741
 31
0.0
  0
LINE
  5
53849
  8
0
 62
     0
 10
-17.543026641886801
 20
6.5587801597104356
 30
0.0
 11
-17.543026641886801
 21
6.5587801597104356
 31
0.0
  0
LINE
  5
5384A
  8
0
 62
     0
 10
-17.60931790262304
 20
6.492488898974198
 30
0.0
 11
-17.60931790262304
 21
6.492488898974198
 31
0.0
  0
LINE
  5
5384B
  8
0
 62
     0
 10
-17.675609163359269
 20
6.4261976382379586
 30
0.0
 11
-17.675609163359269
 21
6.4261976382379586
 31
0.0
  0
LINE
  5
5384C
  8
0
 62
     0
 10
-17.741900424095508
 20
6.3599063775017211
 30
0.0
 11
-17.741900424095508
 21
6.3599063775017211
 31
0.0
  0
LINE
  5
5384D
  8
0
 62
     0
 10
-17.808191684831751
 20
6.2936151167654817
 30
0.0
 11
-17.808191684831751
 21
6.2936151167654817
 31
0.0
  0
LINE
  5
5384E
  8
0
 62
     0
 10
-17.874482945567991
 20
6.2273238560292441
 30
0.0
 11
-17.874482945567991
 21
6.2273238560292441
 31
0.0
  0
LINE
  5
5384F
  8
0
 62
     0
 10
-17.94077420630423
 20
6.1610325952930047
 30
0.0
 11
-17.94077420630423
 21
6.1610325952930047
 31
0.0
  0
LINE
  5
53850
  8
0
 62
     0
 10
-18.007065467040469
 20
6.0947413345567671
 30
0.0
 11
-18.007065467040469
 21
6.0947413345567671
 31
0.0
  0
LINE
  5
53851
  8
0
 62
     0
 10
-18.073356727776709
 20
6.0284500738205278
 30
0.0
 11
-18.073356727776709
 21
6.0284500738205278
 31
0.0
  0
LINE
  5
53852
  8
0
 62
     0
 10
-18.139647988512952
 20
5.9621588130842902
 30
0.0
 11
-18.139647988512952
 21
5.9621588130842902
 31
0.0
  0
LINE
  5
53853
  8
0
 62
     0
 10
-18.205939249249191
 20
5.8958675523480508
 30
0.0
 11
-18.205939249249191
 21
5.8958675523480508
 31
0.0
  0
LINE
  5
53854
  8
0
 62
     0
 10
-18.27223050998543
 20
5.8295762916118132
 30
0.0
 11
-18.27223050998543
 21
5.8295762916118132
 31
0.0
  0
LINE
  5
53855
  8
0
 62
     0
 10
-18.33852177072167
 20
5.7632850308755739
 30
0.0
 11
-18.33852177072167
 21
5.7632850308755739
 31
0.0
  0
LINE
  5
53856
  8
0
 62
     0
 10
-18.404813031457909
 20
5.6969937701393363
 30
0.0
 11
-18.404813031457909
 21
5.6969937701393363
 31
0.0
  0
LINE
  5
53857
  8
0
 62
     0
 10
-18.471104292194148
 20
5.6307025094030969
 30
0.0
 11
-18.471104292194148
 21
5.6307025094030969
 31
0.0
  0
LINE
  5
53858
  8
0
 62
     0
 10
-18.537395552930391
 20
5.5644112486668593
 30
0.0
 11
-18.537395552930391
 21
5.5644112486668593
 31
0.0
  0
LINE
  5
53859
  8
0
 62
     0
 10
-18.603686813666631
 20
5.49811998793062
 30
0.0
 11
-18.603686813666631
 21
5.49811998793062
 31
0.0
  0
LINE
  5
5385A
  8
0
 62
     0
 10
-18.669978074402859
 20
5.4318287271943824
 30
0.0
 11
-18.669978074402859
 21
5.4318287271943824
 31
0.0
  0
LINE
  5
5385B
  8
0
 62
     0
 10
-18.736269335139099
 20
5.365537466458143
 30
0.0
 11
-18.736269335139099
 21
5.365537466458143
 31
0.0
  0
LINE
  5
5385C
  8
0
 62
     0
 10
-18.802560595875342
 20
5.2992462057219054
 30
0.0
 11
-18.802560595875342
 21
5.2992462057219054
 31
0.0
  0
LINE
  5
5385D
  8
0
 62
     0
 10
-18.868851856611581
 20
5.232954944985666
 30
0.0
 11
-18.868851856611581
 21
5.232954944985666
 31
0.0
  0
LINE
  5
5385E
  8
0
 62
     0
 10
-18.93514311734782
 20
5.1666636842494276
 30
0.0
 11
-18.93514311734782
 21
5.1666636842494276
 31
0.0
  0
LINE
  5
5385F
  8
0
 62
     0
 10
-19.00143437808406
 20
5.1003724235131891
 30
0.0
 11
-19.00143437808406
 21
5.1003724235131891
 31
0.0
  0
LINE
  5
53860
  8
0
 62
     0
 10
-19.067725638820299
 20
5.0340811627769506
 30
0.0
 11
-19.067725638820299
 21
5.0340811627769506
 31
0.0
  0
LINE
  5
53861
  8
0
 62
     0
 10
-19.134016899556539
 20
4.967789902040713
 30
0.0
 11
-19.134016899556539
 21
4.967789902040713
 31
0.0
  0
LINE
  5
53862
  8
0
 62
     0
 10
-19.200308160292781
 20
4.9014986413044737
 30
0.0
 11
-19.200308160292781
 21
4.9014986413044737
 31
0.0
  0
LINE
  5
53863
  8
0
 62
     0
 10
-19.266599421029021
 20
4.8352073805682361
 30
0.0
 11
-19.266599421029021
 21
4.8352073805682361
 31
0.0
  0
LINE
  5
53864
  8
0
 62
     0
 10
-19.33289068176526
 20
4.7689161198319967
 30
0.0
 11
-19.33289068176526
 21
4.7689161198319967
 31
0.0
  0
LINE
  5
53865
  8
0
 62
     0
 10
-19.3991819425015
 20
4.7026248590957591
 30
0.0
 11
-19.3991819425015
 21
4.7026248590957591
 31
0.0
  0
LINE
  5
53866
  8
0
 62
     0
 10
-19.465473203237739
 20
4.6363335983595197
 30
0.0
 11
-19.465473203237739
 21
4.6363335983595197
 31
0.0
  0
LINE
  5
53867
  8
0
 62
     0
 10
-19.531764463973978
 20
4.5700423376232822
 30
0.0
 11
-19.531764463973978
 21
4.5700423376232822
 31
0.0
  0
LINE
  5
53868
  8
0
 62
     0
 10
-19.598055724710221
 20
4.5037510768870428
 30
0.0
 11
-19.598055724710221
 21
4.5037510768870428
 31
0.0
  0
LINE
  5
53869
  8
0
 62
     0
 10
-19.66434698544645
 20
4.4374598161508052
 30
0.0
 11
-19.66434698544645
 21
4.4374598161508052
 31
0.0
  0
LINE
  5
5386A
  8
0
 62
     0
 10
-19.730638246182689
 20
4.3711685554145658
 30
0.0
 11
-19.730638246182689
 21
4.3711685554145658
 31
0.0
  0
LINE
  5
5386B
  8
0
 62
     0
 10
-19.796929506918929
 20
4.3048772946783282
 30
0.0
 11
-19.796929506918929
 21
4.3048772946783282
 31
0.0
  0
LINE
  5
5386C
  8
0
 62
     0
 10
-19.863220767655172
 20
4.2385860339420889
 30
0.0
 11
-19.863220767655172
 21
4.2385860339420889
 31
0.0
  0
LINE
  5
5386D
  8
0
 62
     0
 10
-17.045842186365022
 20
7.1885471367047158
 30
0.0
 11
-17.045842186365022
 21
7.1885471367047158
 31
0.0
  0
LINE
  5
5386E
  8
0
 62
     0
 10
-17.112133447101261
 20
7.1222558759684782
 30
0.0
 11
-17.112133447101261
 21
7.1222558759684782
 31
0.0
  0
LINE
  5
5386F
  8
0
 62
     0
 10
-17.1784247078375
 20
7.0559646152322388
 30
0.0
 11
-17.1784247078375
 21
7.0559646152322388
 31
0.0
  0
LINE
  5
53870
  8
0
 62
     0
 10
-17.244715968573729
 20
6.9896733544960012
 30
0.0
 11
-17.244715968573729
 21
6.9896733544960012
 31
0.0
  0
LINE
  5
53871
  8
0
 62
     0
 10
-17.311007229309968
 20
6.9233820937597619
 30
0.0
 11
-17.311007229309968
 21
6.9233820937597619
 31
0.0
  0
LINE
  5
53872
  8
0
 62
     0
 10
-17.377298490046211
 20
6.8570908330235243
 30
0.0
 11
-17.377298490046211
 21
6.8570908330235243
 31
0.0
  0
LINE
  5
53873
  8
0
 62
     0
 10
-17.443589750782451
 20
6.7907995722872849
 30
0.0
 11
-17.443589750782451
 21
6.7907995722872849
 31
0.0
  0
LINE
  5
53874
  8
0
 62
     0
 10
-17.576172272254912
 20
6.6582170508147929
 30
0.0
 11
-17.576172272254912
 21
6.6582170508147929
 31
0.0
  0
LINE
  5
53875
  8
0
 62
     0
 10
-17.642463532991151
 20
6.5919257900785553
 30
0.0
 11
-17.642463532991151
 21
6.5919257900785553
 31
0.0
  0
LINE
  5
53876
  8
0
 62
     0
 10
-17.70875479372739
 20
6.5256345293423159
 30
0.0
 11
-17.70875479372739
 21
6.5256345293423159
 31
0.0
  0
LINE
  5
53877
  8
0
 62
     0
 10
-17.77504605446363
 20
6.4593432686060783
 30
0.0
 11
-17.77504605446363
 21
6.4593432686060783
 31
0.0
  0
LINE
  5
53878
  8
0
 62
     0
 10
-17.841337315199869
 20
6.393052007869839
 30
0.0
 11
-17.841337315199869
 21
6.393052007869839
 31
0.0
  0
LINE
  5
53879
  8
0
 62
     0
 10
-17.907628575936108
 20
6.3267607471336014
 30
0.0
 11
-17.907628575936108
 21
6.3267607471336014
 31
0.0
  0
LINE
  5
5387A
  8
0
 62
     0
 10
-17.973919836672351
 20
6.260469486397362
 30
0.0
 11
-17.973919836672351
 21
6.260469486397362
 31
0.0
  0
LINE
  5
5387B
  8
0
 62
     0
 10
-18.040211097408591
 20
6.1941782256611244
 30
0.0
 11
-18.040211097408591
 21
6.1941782256611244
 31
0.0
  0
LINE
  5
5387C
  8
0
 62
     0
 10
-18.10650235814483
 20
6.127886964924885
 30
0.0
 11
-18.10650235814483
 21
6.127886964924885
 31
0.0
  0
LINE
  5
5387D
  8
0
 62
     0
 10
-18.172793618881069
 20
6.0615957041886466
 30
0.0
 11
-18.172793618881069
 21
6.0615957041886466
 31
0.0
  0
LINE
  5
5387E
  8
0
 62
     0
 10
-18.239084879617309
 20
5.9953044434524081
 30
0.0
 11
-18.239084879617309
 21
5.9953044434524081
 31
0.0
  0
LINE
  5
5387F
  8
0
 62
     0
 10
-18.305376140353552
 20
5.9290131827161696
 30
0.0
 11
-18.305376140353552
 21
5.9290131827161696
 31
0.0
  0
LINE
  5
53880
  8
0
 62
     0
 10
-18.371667401089791
 20
5.862721921979932
 30
0.0
 11
-18.371667401089791
 21
5.862721921979932
 31
0.0
  0
LINE
  5
53881
  8
0
 62
     0
 10
-18.43795866182603
 20
5.7964306612436927
 30
0.0
 11
-18.43795866182603
 21
5.7964306612436927
 31
0.0
  0
LINE
  5
53882
  8
0
 62
     0
 10
-18.504249922562259
 20
5.7301394005074551
 30
0.0
 11
-18.504249922562259
 21
5.7301394005074551
 31
0.0
  0
LINE
  5
53883
  8
0
 62
     0
 10
-18.570541183298499
 20
5.6638481397712157
 30
0.0
 11
-18.570541183298499
 21
5.6638481397712157
 31
0.0
  0
LINE
  5
53884
  8
0
 62
     0
 10
-18.636832444034741
 20
5.5975568790349781
 30
0.0
 11
-18.636832444034741
 21
5.5975568790349781
 31
0.0
  0
LINE
  5
53885
  8
0
 62
     0
 10
-18.703123704770981
 20
5.5312656182987388
 30
0.0
 11
-18.703123704770981
 21
5.5312656182987388
 31
0.0
  0
LINE
  5
53886
  8
0
 62
     0
 10
-18.76941496550722
 20
5.4649743575625012
 30
0.0
 11
-18.76941496550722
 21
5.4649743575625012
 31
0.0
  0
LINE
  5
53887
  8
0
 62
     0
 10
-18.83570622624346
 20
5.3986830968262618
 30
0.0
 11
-18.83570622624346
 21
5.3986830968262618
 31
0.0
  0
LINE
  5
53888
  8
0
 62
     0
 10
-18.901997486979699
 20
5.3323918360900242
 30
0.0
 11
-18.901997486979699
 21
5.3323918360900242
 31
0.0
  0
LINE
  5
53889
  8
0
 62
     0
 10
-18.968288747715938
 20
5.2661005753537848
 30
0.0
 11
-18.968288747715938
 21
5.2661005753537848
 31
0.0
  0
LINE
  5
5388A
  8
0
 62
     0
 10
-19.034580008452181
 20
5.1998093146175473
 30
0.0
 11
-19.034580008452181
 21
5.1998093146175473
 31
0.0
  0
LINE
  5
5388B
  8
0
 62
     0
 10
-19.100871269188421
 20
5.1335180538813079
 30
0.0
 11
-19.100871269188421
 21
5.1335180538813079
 31
0.0
  0
LINE
  5
5388C
  8
0
 62
     0
 10
-19.16716252992466
 20
5.0672267931450703
 30
0.0
 11
-19.16716252992466
 21
5.0672267931450703
 31
0.0
  0
LINE
  5
5388D
  8
0
 62
     0
 10
-19.233453790660899
 20
5.0009355324088309
 30
0.0
 11
-19.233453790660899
 21
5.0009355324088309
 31
0.0
  0
LINE
  5
5388E
  8
0
 62
     0
 10
-19.299745051397139
 20
4.9346442716725933
 30
0.0
 11
-19.299745051397139
 21
4.9346442716725933
 31
0.0
  0
LINE
  5
5388F
  8
0
 62
     0
 10
-19.366036312133382
 20
4.868353010936354
 30
0.0
 11
-19.366036312133382
 21
4.868353010936354
 31
0.0
  0
LINE
  5
53890
  8
0
 62
     0
 10
-19.432327572869621
 20
4.8020617502001164
 30
0.0
 11
-19.432327572869621
 21
4.8020617502001164
 31
0.0
  0
LINE
  5
53891
  8
0
 62
     0
 10
-19.49861883360586
 20
4.735770489463877
 30
0.0
 11
-19.49861883360586
 21
4.735770489463877
 31
0.0
  0
LINE
  5
53892
  8
0
 62
     0
 10
-19.564910094342089
 20
4.6694792287276394
 30
0.0
 11
-19.564910094342089
 21
4.6694792287276394
 31
0.0
  0
LINE
  5
53893
  8
0
 62
     0
 10
-19.631201355078328
 20
4.6031879679914001
 30
0.0
 11
-19.631201355078328
 21
4.6031879679914001
 31
0.0
  0
LINE
  5
53894
  8
0
 62
     0
 10
-19.697492615814571
 20
4.5368967072551616
 30
0.0
 11
-19.697492615814571
 21
4.5368967072551616
 31
0.0
  0
LINE
  5
53895
  8
0
 62
     0
 10
-19.763783876550811
 20
4.4706054465189231
 30
0.0
 11
-19.763783876550811
 21
4.4706054465189231
 31
0.0
  0
LINE
  5
53896
  8
0
 62
     0
 10
-19.83007513728705
 20
4.4043141857826846
 30
0.0
 11
-19.83007513728705
 21
4.4043141857826846
 31
0.0
  0
LINE
  5
53897
  8
0
 62
     0
 10
-19.896366398023289
 20
4.338022925046447
 30
0.0
 11
-19.896366398023289
 21
4.338022925046447
 31
0.0
  0
LINE
  5
53898
  8
0
 62
     0
 10
-19.962657658759529
 20
4.2717316643102077
 30
0.0
 11
-19.962657658759529
 21
4.2717316643102077
 31
0.0
  0
LINE
  5
53899
  8
0
 62
     0
 10
-17.078987816733139
 20
7.2879840278090731
 30
0.0
 11
-17.078987816733139
 21
7.2879840278090731
 31
0.0
  0
LINE
  5
5389A
  8
0
 62
     0
 10
-17.145279077469379
 20
7.2216927670728346
 30
0.0
 11
-17.145279077469379
 21
7.2216927670728346
 31
0.0
  0
LINE
  5
5389B
  8
0
 62
     0
 10
-17.211570338205622
 20
7.1554015063365961
 30
0.0
 11
-17.211570338205622
 21
7.1554015063365961
 31
0.0
  0
LINE
  5
5389C
  8
0
 62
     0
 10
-17.277861598941861
 20
7.0891102456003576
 30
0.0
 11
-17.277861598941861
 21
7.0891102456003576
 31
0.0
  0
LINE
  5
5389D
  8
0
 62
     0
 10
-17.34415285967809
 20
7.02281898486412
 30
0.0
 11
-17.34415285967809
 21
7.02281898486412
 31
0.0
  0
LINE
  5
5389E
  8
0
 62
     0
 10
-17.410444120414329
 20
6.9565277241278807
 30
0.0
 11
-17.410444120414329
 21
6.9565277241278807
 31
0.0
  0
LINE
  5
5389F
  8
0
 62
     0
 10
-17.476735381150569
 20
6.8902364633916431
 30
0.0
 11
-17.476735381150569
 21
6.8902364633916431
 31
0.0
  0
LINE
  5
538A0
  8
0
 62
     0
 10
-17.675609163359269
 20
6.6913626811829152
 30
0.0
 11
-17.675609163359269
 21
6.6913626811829152
 31
0.0
  0
LINE
  5
538A1
  8
0
 62
     0
 10
-17.741900424095508
 20
6.6250714204466759
 30
0.0
 11
-17.741900424095508
 21
6.6250714204466759
 31
0.0
  0
LINE
  5
538A2
  8
0
 62
     0
 10
-17.808191684831751
 20
6.5587801597104383
 30
0.0
 11
-17.808191684831751
 21
6.5587801597104383
 31
0.0
  0
LINE
  5
538A3
  8
0
 62
     0
 10
-17.874482945567991
 20
6.4924888989741989
 30
0.0
 11
-17.874482945567991
 21
6.4924888989741989
 31
0.0
  0
LINE
  5
538A4
  8
0
 62
     0
 10
-17.94077420630423
 20
6.4261976382379613
 30
0.0
 11
-17.94077420630423
 21
6.4261976382379613
 31
0.0
  0
LINE
  5
538A5
  8
0
 62
     0
 10
-18.007065467040469
 20
6.3599063775017219
 30
0.0
 11
-18.007065467040469
 21
6.3599063775017219
 31
0.0
  0
LINE
  5
538A6
  8
0
 62
     0
 10
-18.073356727776709
 20
6.2936151167654844
 30
0.0
 11
-18.073356727776709
 21
6.2936151167654844
 31
0.0
  0
LINE
  5
538A7
  8
0
 62
     0
 10
-18.139647988512941
 20
6.227323856029245
 30
0.0
 11
-18.139647988512941
 21
6.227323856029245
 31
0.0
  0
LINE
  5
538A8
  8
0
 62
     0
 10
-18.205939249249191
 20
6.1610325952930074
 30
0.0
 11
-18.205939249249191
 21
6.1610325952930074
 31
0.0
  0
LINE
  5
538A9
  8
0
 62
     0
 10
-18.27223050998543
 20
6.094741334556768
 30
0.0
 11
-18.27223050998543
 21
6.094741334556768
 31
0.0
  0
LINE
  5
538AA
  8
0
 62
     0
 10
-18.338521770721659
 20
6.0284500738205304
 30
0.0
 11
-18.338521770721659
 21
6.0284500738205304
 31
0.0
  0
LINE
  5
538AB
  8
0
 62
     0
 10
-18.404813031457898
 20
5.9621588130842911
 30
0.0
 11
-18.404813031457898
 21
5.9621588130842911
 31
0.0
  0
LINE
  5
538AC
  8
0
 62
     0
 10
-18.471104292194141
 20
5.8958675523480526
 30
0.0
 11
-18.471104292194141
 21
5.8958675523480526
 31
0.0
  0
LINE
  5
538AD
  8
0
 62
     0
 10
-18.537395552930381
 20
5.829576291611815
 30
0.0
 11
-18.537395552930381
 21
5.829576291611815
 31
0.0
  0
LINE
  5
538AE
  8
0
 62
     0
 10
-18.60368681366662
 20
5.7632850308755756
 30
0.0
 11
-18.60368681366662
 21
5.7632850308755756
 31
0.0
  0
LINE
  5
538AF
  8
0
 62
     0
 10
-18.669978074402859
 20
5.6969937701393381
 30
0.0
 11
-18.669978074402859
 21
5.6969937701393381
 31
0.0
  0
LINE
  5
538B0
  8
0
 62
     0
 10
-18.736269335139099
 20
5.6307025094030987
 30
0.0
 11
-18.736269335139099
 21
5.6307025094030987
 31
0.0
  0
LINE
  5
538B1
  8
0
 62
     0
 10
-18.802560595875342
 20
5.5644112486668611
 30
0.0
 11
-18.802560595875342
 21
5.5644112486668611
 31
0.0
  0
LINE
  5
538B2
  8
0
 62
     0
 10
-18.868851856611581
 20
5.4981199879306217
 30
0.0
 11
-18.868851856611581
 21
5.4981199879306217
 31
0.0
  0
LINE
  5
538B3
  8
0
 62
     0
 10
-18.93514311734782
 20
5.4318287271943841
 30
0.0
 11
-18.93514311734782
 21
5.4318287271943841
 31
0.0
  0
LINE
  5
538B4
  8
0
 62
     0
 10
-19.00143437808406
 20
5.3655374664581448
 30
0.0
 11
-19.00143437808406
 21
5.3655374664581448
 31
0.0
  0
LINE
  5
538B5
  8
0
 62
     0
 10
-19.067725638820299
 20
5.2992462057219072
 30
0.0
 11
-19.067725638820299
 21
5.2992462057219072
 31
0.0
  0
LINE
  5
538B6
  8
0
 62
     0
 10
-19.134016899556539
 20
5.2329549449856678
 30
0.0
 11
-19.134016899556539
 21
5.2329549449856678
 31
0.0
  0
LINE
  5
538B7
  8
0
 62
     0
 10
-19.200308160292781
 20
5.1666636842494302
 30
0.0
 11
-19.200308160292781
 21
5.1666636842494302
 31
0.0
  0
LINE
  5
538B8
  8
0
 62
     0
 10
-19.266599421029021
 20
5.1003724235131909
 30
0.0
 11
-19.266599421029021
 21
5.1003724235131909
 31
0.0
  0
LINE
  5
538B9
  8
0
 62
     0
 10
-19.33289068176526
 20
5.0340811627769533
 30
0.0
 11
-19.33289068176526
 21
5.0340811627769533
 31
0.0
  0
LINE
  5
538BA
  8
0
 62
     0
 10
-19.399181942501489
 20
4.9677899020407139
 30
0.0
 11
-19.399181942501489
 21
4.9677899020407139
 31
0.0
  0
LINE
  5
538BB
  8
0
 62
     0
 10
-19.465473203237728
 20
4.9014986413044763
 30
0.0
 11
-19.465473203237728
 21
4.9014986413044763
 31
0.0
  0
LINE
  5
538BC
  8
0
 62
     0
 10
-19.531764463973971
 20
4.835207380568237
 30
0.0
 11
-19.531764463973971
 21
4.835207380568237
 31
0.0
  0
LINE
  5
538BD
  8
0
 62
     0
 10
-19.598055724710211
 20
4.7689161198319994
 30
0.0
 11
-19.598055724710211
 21
4.7689161198319994
 31
0.0
  0
LINE
  5
538BE
  8
0
 62
     0
 10
-19.66434698544645
 20
4.70262485909576
 30
0.0
 11
-19.66434698544645
 21
4.70262485909576
 31
0.0
  0
LINE
  5
538BF
  8
0
 62
     0
 10
-19.730638246182689
 20
4.6363335983595224
 30
0.0
 11
-19.730638246182689
 21
4.6363335983595224
 31
0.0
  0
LINE
  5
538C0
  8
0
 62
     0
 10
-19.796929506918929
 20
4.570042337623283
 30
0.0
 11
-19.796929506918929
 21
4.570042337623283
 31
0.0
  0
LINE
  5
538C1
  8
0
 62
     0
 10
-19.863220767655172
 20
4.5037510768870446
 30
0.0
 11
-19.863220767655172
 21
4.5037510768870446
 31
0.0
  0
LINE
  5
538C2
  8
0
 62
     0
 10
-19.929512028391411
 20
4.4374598161508061
 30
0.0
 11
-19.929512028391411
 21
4.4374598161508061
 31
0.0
  0
LINE
  5
538C3
  8
0
 62
     0
 10
-19.99580328912765
 20
4.3711685554145676
 30
0.0
 11
-19.99580328912765
 21
4.3711685554145676
 31
0.0
  0
LINE
  5
538C4
  8
0
 62
     0
 10
-20.06209454986389
 20
4.30487729467833
 30
0.0
 11
-20.06209454986389
 21
4.30487729467833
 31
0.0
  0
LINE
  5
538C5
  8
0
 62
     0
 10
-17.1784247078375
 20
7.3211296581771927
 30
0.0
 11
-17.1784247078375
 21
7.3211296581771927
 31
0.0
  0
LINE
  5
538C6
  8
0
 62
     0
 10
-17.244715968573729
 20
7.2548383974409552
 30
0.0
 11
-17.244715968573729
 21
7.2548383974409552
 31
0.0
  0
LINE
  5
538C7
  8
0
 62
     0
 10
-17.311007229309968
 20
7.1885471367047158
 30
0.0
 11
-17.311007229309968
 21
7.1885471367047158
 31
0.0
  0
LINE
  5
538C8
  8
0
 62
     0
 10
-17.377298490046211
 20
7.1222558759684782
 30
0.0
 11
-17.377298490046211
 21
7.1222558759684782
 31
0.0
  0
LINE
  5
538C9
  8
0
 62
     0
 10
-17.443589750782451
 20
7.0559646152322388
 30
0.0
 11
-17.443589750782451
 21
7.0559646152322388
 31
0.0
  0
LINE
  5
538CA
  8
0
 62
     0
 10
-17.50988101151869
 20
6.9896733544960012
 30
0.0
 11
-17.50988101151869
 21
6.9896733544960012
 31
0.0
  0
LINE
  5
538CB
  8
0
 62
     0
 10
-17.576172272254929
 20
6.9233820937597619
 30
0.0
 11
-17.576172272254929
 21
6.9233820937597619
 31
0.0
  0
LINE
  5
538CC
  8
0
 62
     0
 10
-17.70875479372739
 20
6.7907995722872707
 30
0.0
 11
-17.70875479372739
 21
6.7907995722872707
 31
0.0
  0
LINE
  5
538CD
  8
0
 62
     0
 10
-17.77504605446363
 20
6.7245083115510331
 30
0.0
 11
-17.77504605446363
 21
6.7245083115510331
 31
0.0
  0
LINE
  5
538CE
  8
0
 62
     0
 10
-17.841337315199869
 20
6.6582170508147938
 30
0.0
 11
-17.841337315199869
 21
6.6582170508147938
 31
0.0
  0
LINE
  5
538CF
  8
0
 62
     0
 10
-17.907628575936108
 20
6.5919257900785562
 30
0.0
 11
-17.907628575936108
 21
6.5919257900785562
 31
0.0
  0
LINE
  5
538D0
  8
0
 62
     0
 10
-17.973919836672351
 20
6.5256345293423168
 30
0.0
 11
-17.973919836672351
 21
6.5256345293423168
 31
0.0
  0
LINE
  5
538D1
  8
0
 62
     0
 10
-18.04021109740858
 20
6.4593432686060792
 30
0.0
 11
-18.04021109740858
 21
6.4593432686060792
 31
0.0
  0
LINE
  5
538D2
  8
0
 62
     0
 10
-18.10650235814483
 20
6.3930520078698398
 30
0.0
 11
-18.10650235814483
 21
6.3930520078698398
 31
0.0
  0
LINE
  5
538D3
  8
0
 62
     0
 10
-18.172793618881059
 20
6.3267607471336023
 30
0.0
 11
-18.172793618881059
 21
6.3267607471336023
 31
0.0
  0
LINE
  5
538D4
  8
0
 62
     0
 10
-18.239084879617302
 20
6.2604694863973629
 30
0.0
 11
-18.239084879617302
 21
6.2604694863973629
 31
0.0
  0
LINE
  5
538D5
  8
0
 62
     0
 10
-18.305376140353541
 20
6.1941782256611253
 30
0.0
 11
-18.305376140353541
 21
6.1941782256611253
 31
0.0
  0
LINE
  5
538D6
  8
0
 62
     0
 10
-18.37166740108978
 20
6.1278869649248859
 30
0.0
 11
-18.37166740108978
 21
6.1278869649248859
 31
0.0
  0
LINE
  5
538D7
  8
0
 62
     0
 10
-18.43795866182602
 20
6.0615957041886483
 30
0.0
 11
-18.43795866182602
 21
6.0615957041886483
 31
0.0
  0
LINE
  5
538D8
  8
0
 62
     0
 10
-18.504249922562259
 20
5.995304443452409
 30
0.0
 11
-18.504249922562259
 21
5.995304443452409
 31
0.0
  0
LINE
  5
538D9
  8
0
 62
     0
 10
-18.570541183298499
 20
5.9290131827161714
 30
0.0
 11
-18.570541183298499
 21
5.9290131827161714
 31
0.0
  0
LINE
  5
538DA
  8
0
 62
     0
 10
-18.636832444034741
 20
5.862721921979932
 30
0.0
 11
-18.636832444034741
 21
5.862721921979932
 31
0.0
  0
LINE
  5
538DB
  8
0
 62
     0
 10
-18.703123704770981
 20
5.7964306612436944
 30
0.0
 11
-18.703123704770981
 21
5.7964306612436944
 31
0.0
  0
LINE
  5
538DC
  8
0
 62
     0
 10
-18.76941496550722
 20
5.7301394005074551
 30
0.0
 11
-18.76941496550722
 21
5.7301394005074551
 31
0.0
  0
LINE
  5
538DD
  8
0
 62
     0
 10
-18.83570622624346
 20
5.6638481397712166
 30
0.0
 11
-18.83570622624346
 21
5.6638481397712166
 31
0.0
  0
LINE
  5
538DE
  8
0
 62
     0
 10
-18.901997486979699
 20
5.597556879034979
 30
0.0
 11
-18.901997486979699
 21
5.597556879034979
 31
0.0
  0
LINE
  5
538DF
  8
0
 62
     0
 10
-18.968288747715938
 20
5.5312656182987396
 30
0.0
 11
-18.968288747715938
 21
5.5312656182987396
 31
0.0
  0
LINE
  5
538E0
  8
0
 62
     0
 10
-19.034580008452171
 20
5.464974357562502
 30
0.0
 11
-19.034580008452171
 21
5.464974357562502
 31
0.0
  0
LINE
  5
538E1
  8
0
 62
     0
 10
-19.100871269188421
 20
5.3986830968262627
 30
0.0
 11
-19.100871269188421
 21
5.3986830968262627
 31
0.0
  0
LINE
  5
538E2
  8
0
 62
     0
 10
-19.167162529924649
 20
5.3323918360900251
 30
0.0
 11
-19.167162529924649
 21
5.3323918360900251
 31
0.0
  0
LINE
  5
538E3
  8
0
 62
     0
 10
-19.233453790660889
 20
5.2661005753537857
 30
0.0
 11
-19.233453790660889
 21
5.2661005753537857
 31
0.0
  0
LINE
  5
538E4
  8
0
 62
     0
 10
-19.299745051397132
 20
5.1998093146175481
 30
0.0
 11
-19.299745051397132
 21
5.1998093146175481
 31
0.0
  0
LINE
  5
538E5
  8
0
 62
     0
 10
-19.366036312133371
 20
5.1335180538813088
 30
0.0
 11
-19.366036312133371
 21
5.1335180538813088
 31
0.0
  0
LINE
  5
538E6
  8
0
 62
     0
 10
-19.43232757286961
 20
5.0672267931450712
 30
0.0
 11
-19.43232757286961
 21
5.0672267931450712
 31
0.0
  0
LINE
  5
538E7
  8
0
 62
     0
 10
-19.49861883360585
 20
5.0009355324088318
 30
0.0
 11
-19.49861883360585
 21
5.0009355324088318
 31
0.0
  0
LINE
  5
538E8
  8
0
 62
     0
 10
-19.564910094342089
 20
4.9346442716725942
 30
0.0
 11
-19.564910094342089
 21
4.9346442716725942
 31
0.0
  0
LINE
  5
538E9
  8
0
 62
     0
 10
-19.631201355078328
 20
4.8683530109363549
 30
0.0
 11
-19.631201355078328
 21
4.8683530109363549
 31
0.0
  0
LINE
  5
538EA
  8
0
 62
     0
 10
-19.697492615814571
 20
4.8020617502001173
 30
0.0
 11
-19.697492615814571
 21
4.8020617502001173
 31
0.0
  0
LINE
  5
538EB
  8
0
 62
     0
 10
-19.763783876550811
 20
4.7357704894638779
 30
0.0
 11
-19.763783876550811
 21
4.7357704894638779
 31
0.0
  0
LINE
  5
538EC
  8
0
 62
     0
 10
-19.83007513728705
 20
4.6694792287276403
 30
0.0
 11
-19.83007513728705
 21
4.6694792287276403
 31
0.0
  0
LINE
  5
538ED
  8
0
 62
     0
 10
-19.896366398023289
 20
4.603187967991401
 30
0.0
 11
-19.896366398023289
 21
4.603187967991401
 31
0.0
  0
LINE
  5
538EE
  8
0
 62
     0
 10
-19.962657658759529
 20
4.5368967072551634
 30
0.0
 11
-19.962657658759529
 21
4.5368967072551634
 31
0.0
  0
LINE
  5
538EF
  8
0
 62
     0
 10
-20.028948919495772
 20
4.470605446518924
 30
0.0
 11
-20.028948919495772
 21
4.470605446518924
 31
0.0
  0
LINE
  5
538F0
  8
0
 62
     0
 10
-20.095240180232011
 20
4.4043141857826864
 30
0.0
 11
-20.095240180232011
 21
4.4043141857826864
 31
0.0
  0
LINE
  5
538F1
  8
0
 62
     0
 10
-20.16153144096825
 20
4.338022925046447
 30
0.0
 11
-20.16153144096825
 21
4.338022925046447
 31
0.0
  0
LINE
  5
538F2
  8
0
 62
     0
 10
-17.27786159894185
 20
7.3542752885453124
 30
0.0
 11
-17.27786159894185
 21
7.3542752885453124
 31
0.0
  0
LINE
  5
538F3
  8
0
 62
     0
 10
-17.34415285967809
 20
7.2879840278090731
 30
0.0
 11
-17.34415285967809
 21
7.2879840278090731
 31
0.0
  0
LINE
  5
538F4
  8
0
 62
     0
 10
-17.410444120414329
 20
7.2216927670728346
 30
0.0
 11
-17.410444120414329
 21
7.2216927670728346
 31
0.0
  0
LINE
  5
538F5
  8
0
 62
     0
 10
-17.476735381150569
 20
7.1554015063365961
 30
0.0
 11
-17.476735381150569
 21
7.1554015063365961
 31
0.0
  0
LINE
  5
538F6
  8
0
 62
     0
 10
-17.543026641886811
 20
7.0891102456003576
 30
0.0
 11
-17.543026641886811
 21
7.0891102456003576
 31
0.0
  0
LINE
  5
538F7
  8
0
 62
     0
 10
-17.609317902623051
 20
7.02281898486412
 30
0.0
 11
-17.609317902623051
 21
7.02281898486412
 31
0.0
  0
LINE
  5
538F8
  8
0
 62
     0
 10
-17.67560916335929
 20
6.9565277241278807
 30
0.0
 11
-17.67560916335929
 21
6.9565277241278807
 31
0.0
  0
LINE
  5
538F9
  8
0
 62
     0
 10
-17.808191684831751
 20
6.8239452026553922
 30
0.0
 11
-17.808191684831751
 21
6.8239452026553922
 31
0.0
  0
LINE
  5
538FA
  8
0
 62
     0
 10
-17.874482945567991
 20
6.7576539419191528
 30
0.0
 11
-17.874482945567991
 21
6.7576539419191528
 31
0.0
  0
LINE
  5
538FB
  8
0
 62
     0
 10
-17.94077420630423
 20
6.6913626811829152
 30
0.0
 11
-17.94077420630423
 21
6.6913626811829152
 31
0.0
  0
LINE
  5
538FC
  8
0
 62
     0
 10
-18.007065467040469
 20
6.6250714204466759
 30
0.0
 11
-18.007065467040469
 21
6.6250714204466759
 31
0.0
  0
LINE
  5
538FD
  8
0
 62
     0
 10
-18.073356727776709
 20
6.5587801597104383
 30
0.0
 11
-18.073356727776709
 21
6.5587801597104383
 31
0.0
  0
LINE
  5
538FE
  8
0
 62
     0
 10
-18.139647988512941
 20
6.4924888989741989
 30
0.0
 11
-18.139647988512941
 21
6.4924888989741989
 31
0.0
  0
LINE
  5
538FF
  8
0
 62
     0
 10
-18.205939249249191
 20
6.4261976382379613
 30
0.0
 11
-18.205939249249191
 21
6.4261976382379613
 31
0.0
  0
LINE
  5
53900
  8
0
 62
     0
 10
-18.27223050998543
 20
6.3599063775017219
 30
0.0
 11
-18.27223050998543
 21
6.3599063775017219
 31
0.0
  0
LINE
  5
53901
  8
0
 62
     0
 10
-18.338521770721659
 20
6.2936151167654844
 30
0.0
 11
-18.338521770721659
 21
6.2936151167654844
 31
0.0
  0
LINE
  5
53902
  8
0
 62
     0
 10
-18.404813031457898
 20
6.227323856029245
 30
0.0
 11
-18.404813031457898
 21
6.227323856029245
 31
0.0
  0
LINE
  5
53903
  8
0
 62
     0
 10
-18.471104292194141
 20
6.1610325952930074
 30
0.0
 11
-18.471104292194141
 21
6.1610325952930074
 31
0.0
  0
LINE
  5
53904
  8
0
 62
     0
 10
-18.537395552930381
 20
6.094741334556768
 30
0.0
 11
-18.537395552930381
 21
6.094741334556768
 31
0.0
  0
LINE
  5
53905
  8
0
 62
     0
 10
-18.60368681366662
 20
6.0284500738205304
 30
0.0
 11
-18.60368681366662
 21
6.0284500738205304
 31
0.0
  0
LINE
  5
53906
  8
0
 62
     0
 10
-18.669978074402859
 20
5.9621588130842911
 30
0.0
 11
-18.669978074402859
 21
5.9621588130842911
 31
0.0
  0
LINE
  5
53907
  8
0
 62
     0
 10
-18.736269335139099
 20
5.8958675523480526
 30
0.0
 11
-18.736269335139099
 21
5.8958675523480526
 31
0.0
  0
LINE
  5
53908
  8
0
 62
     0
 10
-18.802560595875342
 20
5.829576291611815
 30
0.0
 11
-18.802560595875342
 21
5.829576291611815
 31
0.0
  0
LINE
  5
53909
  8
0
 62
     0
 10
-18.868851856611581
 20
5.7632850308755756
 30
0.0
 11
-18.868851856611581
 21
5.7632850308755756
 31
0.0
  0
LINE
  5
5390A
  8
0
 62
     0
 10
-18.93514311734782
 20
5.6969937701393381
 30
0.0
 11
-18.93514311734782
 21
5.6969937701393381
 31
0.0
  0
LINE
  5
5390B
  8
0
 62
     0
 10
-19.00143437808406
 20
5.6307025094030987
 30
0.0
 11
-19.00143437808406
 21
5.6307025094030987
 31
0.0
  0
LINE
  5
5390C
  8
0
 62
     0
 10
-19.067725638820299
 20
5.5644112486668611
 30
0.0
 11
-19.067725638820299
 21
5.5644112486668611
 31
0.0
  0
LINE
  5
5390D
  8
0
 62
     0
 10
-19.134016899556539
 20
5.4981199879306217
 30
0.0
 11
-19.134016899556539
 21
5.4981199879306217
 31
0.0
  0
LINE
  5
5390E
  8
0
 62
     0
 10
-19.200308160292781
 20
5.4318287271943841
 30
0.0
 11
-19.200308160292781
 21
5.4318287271943841
 31
0.0
  0
LINE
  5
5390F
  8
0
 62
     0
 10
-19.266599421029021
 20
5.3655374664581448
 30
0.0
 11
-19.266599421029021
 21
5.3655374664581448
 31
0.0
  0
LINE
  5
53910
  8
0
 62
     0
 10
-19.33289068176526
 20
5.2992462057219072
 30
0.0
 11
-19.33289068176526
 21
5.2992462057219072
 31
0.0
  0
LINE
  5
53911
  8
0
 62
     0
 10
-19.399181942501489
 20
5.2329549449856678
 30
0.0
 11
-19.399181942501489
 21
5.2329549449856678
 31
0.0
  0
LINE
  5
53912
  8
0
 62
     0
 10
-19.465473203237728
 20
5.1666636842494302
 30
0.0
 11
-19.465473203237728
 21
5.1666636842494302
 31
0.0
  0
LINE
  5
53913
  8
0
 62
     0
 10
-19.531764463973971
 20
5.1003724235131909
 30
0.0
 11
-19.531764463973971
 21
5.1003724235131909
 31
0.0
  0
LINE
  5
53914
  8
0
 62
     0
 10
-19.598055724710211
 20
5.0340811627769533
 30
0.0
 11
-19.598055724710211
 21
5.0340811627769533
 31
0.0
  0
LINE
  5
53915
  8
0
 62
     0
 10
-19.66434698544645
 20
4.9677899020407139
 30
0.0
 11
-19.66434698544645
 21
4.9677899020407139
 31
0.0
  0
LINE
  5
53916
  8
0
 62
     0
 10
-19.730638246182689
 20
4.9014986413044763
 30
0.0
 11
-19.730638246182689
 21
4.9014986413044763
 31
0.0
  0
LINE
  5
53917
  8
0
 62
     0
 10
-19.796929506918929
 20
4.835207380568237
 30
0.0
 11
-19.796929506918929
 21
4.835207380568237
 31
0.0
  0
LINE
  5
53918
  8
0
 62
     0
 10
-19.863220767655172
 20
4.7689161198319994
 30
0.0
 11
-19.863220767655172
 21
4.7689161198319994
 31
0.0
  0
LINE
  5
53919
  8
0
 62
     0
 10
-19.929512028391411
 20
4.70262485909576
 30
0.0
 11
-19.929512028391411
 21
4.70262485909576
 31
0.0
  0
LINE
  5
5391A
  8
0
 62
     0
 10
-19.99580328912765
 20
4.6363335983595224
 30
0.0
 11
-19.99580328912765
 21
4.6363335983595224
 31
0.0
  0
LINE
  5
5391B
  8
0
 62
     0
 10
-20.06209454986389
 20
4.570042337623283
 30
0.0
 11
-20.06209454986389
 21
4.570042337623283
 31
0.0
  0
LINE
  5
5391C
  8
0
 62
     0
 10
-20.128385810600129
 20
4.5037510768870446
 30
0.0
 11
-20.128385810600129
 21
4.5037510768870446
 31
0.0
  0
LINE
  5
5391D
  8
0
 62
     0
 10
-20.194677071336368
 20
4.4374598161508061
 30
0.0
 11
-20.194677071336368
 21
4.4374598161508061
 31
0.0
  0
LINE
  5
5391E
  8
0
 62
     0
 10
-17.377298490046211
 20
7.3874209189134303
 30
0.0
 11
-17.377298490046211
 21
7.3874209189134303
 31
0.0
  0
LINE
  5
5391F
  8
0
 62
     0
 10
-17.443589750782451
 20
7.321129658177191
 30
0.0
 11
-17.443589750782451
 21
7.321129658177191
 31
0.0
  0
LINE
  5
53920
  8
0
 62
     0
 10
-17.50988101151869
 20
7.2548383974409534
 30
0.0
 11
-17.50988101151869
 21
7.2548383974409534
 31
0.0
  0
LINE
  5
53921
  8
0
 62
     0
 10
-17.576172272254929
 20
7.188547136704714
 30
0.0
 11
-17.576172272254929
 21
7.188547136704714
 31
0.0
  0
LINE
  5
53922
  8
0
 62
     0
 10
-17.642463532991169
 20
7.1222558759684764
 30
0.0
 11
-17.642463532991169
 21
7.1222558759684764
 31
0.0
  0
LINE
  5
53923
  8
0
 62
     0
 10
-17.708754793727412
 20
7.0559646152322371
 30
0.0
 11
-17.708754793727412
 21
7.0559646152322371
 31
0.0
  0
LINE
  5
53924
  8
0
 62
     0
 10
-17.775046054463651
 20
6.9896733544959986
 30
0.0
 11
-17.775046054463651
 21
6.9896733544959986
 31
0.0
  0
LINE
  5
53925
  8
0
 62
     0
 10
-17.907628575936108
 20
6.8570908330235101
 30
0.0
 11
-17.907628575936108
 21
6.8570908330235101
 31
0.0
  0
LINE
  5
53926
  8
0
 62
     0
 10
-17.973919836672351
 20
6.7907995722872707
 30
0.0
 11
-17.973919836672351
 21
6.7907995722872707
 31
0.0
  0
LINE
  5
53927
  8
0
 62
     0
 10
-18.040211097408591
 20
6.7245083115510331
 30
0.0
 11
-18.040211097408591
 21
6.7245083115510331
 31
0.0
  0
LINE
  5
53928
  8
0
 62
     0
 10
-18.10650235814483
 20
6.6582170508147938
 30
0.0
 11
-18.10650235814483
 21
6.6582170508147938
 31
0.0
  0
LINE
  5
53929
  8
0
 62
     0
 10
-18.172793618881069
 20
6.5919257900785562
 30
0.0
 11
-18.172793618881069
 21
6.5919257900785562
 31
0.0
  0
LINE
  5
5392A
  8
0
 62
     0
 10
-18.239084879617309
 20
6.5256345293423168
 30
0.0
 11
-18.239084879617309
 21
6.5256345293423168
 31
0.0
  0
LINE
  5
5392B
  8
0
 62
     0
 10
-18.305376140353552
 20
6.4593432686060792
 30
0.0
 11
-18.305376140353552
 21
6.4593432686060792
 31
0.0
  0
LINE
  5
5392C
  8
0
 62
     0
 10
-18.371667401089791
 20
6.3930520078698398
 30
0.0
 11
-18.371667401089791
 21
6.3930520078698398
 31
0.0
  0
LINE
  5
5392D
  8
0
 62
     0
 10
-18.43795866182603
 20
6.3267607471336023
 30
0.0
 11
-18.43795866182603
 21
6.3267607471336023
 31
0.0
  0
LINE
  5
5392E
  8
0
 62
     0
 10
-18.504249922562259
 20
6.2604694863973629
 30
0.0
 11
-18.504249922562259
 21
6.2604694863973629
 31
0.0
  0
LINE
  5
5392F
  8
0
 62
     0
 10
-18.570541183298499
 20
6.1941782256611253
 30
0.0
 11
-18.570541183298499
 21
6.1941782256611253
 31
0.0
  0
LINE
  5
53930
  8
0
 62
     0
 10
-18.636832444034741
 20
6.1278869649248859
 30
0.0
 11
-18.636832444034741
 21
6.1278869649248859
 31
0.0
  0
LINE
  5
53931
  8
0
 62
     0
 10
-18.703123704770981
 20
6.0615957041886483
 30
0.0
 11
-18.703123704770981
 21
6.0615957041886483
 31
0.0
  0
LINE
  5
53932
  8
0
 62
     0
 10
-18.76941496550722
 20
5.995304443452409
 30
0.0
 11
-18.76941496550722
 21
5.995304443452409
 31
0.0
  0
LINE
  5
53933
  8
0
 62
     0
 10
-18.83570622624346
 20
5.9290131827161714
 30
0.0
 11
-18.83570622624346
 21
5.9290131827161714
 31
0.0
  0
LINE
  5
53934
  8
0
 62
     0
 10
-18.901997486979699
 20
5.862721921979932
 30
0.0
 11
-18.901997486979699
 21
5.862721921979932
 31
0.0
  0
LINE
  5
53935
  8
0
 62
     0
 10
-18.968288747715938
 20
5.7964306612436944
 30
0.0
 11
-18.968288747715938
 21
5.7964306612436944
 31
0.0
  0
LINE
  5
53936
  8
0
 62
     0
 10
-19.034580008452181
 20
5.7301394005074551
 30
0.0
 11
-19.034580008452181
 21
5.7301394005074551
 31
0.0
  0
LINE
  5
53937
  8
0
 62
     0
 10
-19.100871269188421
 20
5.6638481397712166
 30
0.0
 11
-19.100871269188421
 21
5.6638481397712166
 31
0.0
  0
LINE
  5
53938
  8
0
 62
     0
 10
-19.16716252992466
 20
5.597556879034979
 30
0.0
 11
-19.16716252992466
 21
5.597556879034979
 31
0.0
  0
LINE
  5
53939
  8
0
 62
     0
 10
-19.233453790660899
 20
5.5312656182987396
 30
0.0
 11
-19.233453790660899
 21
5.5312656182987396
 31
0.0
  0
LINE
  5
5393A
  8
0
 62
     0
 10
-19.299745051397139
 20
5.464974357562502
 30
0.0
 11
-19.299745051397139
 21
5.464974357562502
 31
0.0
  0
LINE
  5
5393B
  8
0
 62
     0
 10
-19.366036312133382
 20
5.3986830968262627
 30
0.0
 11
-19.366036312133382
 21
5.3986830968262627
 31
0.0
  0
LINE
  5
5393C
  8
0
 62
     0
 10
-19.432327572869621
 20
5.3323918360900251
 30
0.0
 11
-19.432327572869621
 21
5.3323918360900251
 31
0.0
  0
LINE
  5
5393D
  8
0
 62
     0
 10
-19.49861883360586
 20
5.2661005753537857
 30
0.0
 11
-19.49861883360586
 21
5.2661005753537857
 31
0.0
  0
LINE
  5
5393E
  8
0
 62
     0
 10
-19.564910094342089
 20
5.1998093146175481
 30
0.0
 11
-19.564910094342089
 21
5.1998093146175481
 31
0.0
  0
LINE
  5
5393F
  8
0
 62
     0
 10
-19.631201355078328
 20
5.1335180538813088
 30
0.0
 11
-19.631201355078328
 21
5.1335180538813088
 31
0.0
  0
LINE
  5
53940
  8
0
 62
     0
 10
-19.697492615814571
 20
5.0672267931450712
 30
0.0
 11
-19.697492615814571
 21
5.0672267931450712
 31
0.0
  0
LINE
  5
53941
  8
0
 62
     0
 10
-19.763783876550811
 20
5.0009355324088318
 30
0.0
 11
-19.763783876550811
 21
5.0009355324088318
 31
0.0
  0
LINE
  5
53942
  8
0
 62
     0
 10
-19.83007513728705
 20
4.9346442716725942
 30
0.0
 11
-19.83007513728705
 21
4.9346442716725942
 31
0.0
  0
LINE
  5
53943
  8
0
 62
     0
 10
-19.896366398023289
 20
4.8683530109363549
 30
0.0
 11
-19.896366398023289
 21
4.8683530109363549
 31
0.0
  0
LINE
  5
53944
  8
0
 62
     0
 10
-19.962657658759529
 20
4.8020617502001173
 30
0.0
 11
-19.962657658759529
 21
4.8020617502001173
 31
0.0
  0
LINE
  5
53945
  8
0
 62
     0
 10
-20.028948919495772
 20
4.7357704894638779
 30
0.0
 11
-20.028948919495772
 21
4.7357704894638779
 31
0.0
  0
LINE
  5
53946
  8
0
 62
     0
 10
-20.095240180232011
 20
4.6694792287276403
 30
0.0
 11
-20.095240180232011
 21
4.6694792287276403
 31
0.0
  0
LINE
  5
53947
  8
0
 62
     0
 10
-20.16153144096825
 20
4.603187967991401
 30
0.0
 11
-20.16153144096825
 21
4.603187967991401
 31
0.0
  0
LINE
  5
53948
  8
0
 62
     0
 10
-20.22782270170449
 20
4.5368967072551634
 30
0.0
 11
-20.22782270170449
 21
4.5368967072551634
 31
0.0
  0
LINE
  5
53949
  8
0
 62
     0
 10
-20.294113962440729
 20
4.470605446518924
 30
0.0
 11
-20.294113962440729
 21
4.470605446518924
 31
0.0
  0
LINE
  5
5394A
  8
0
 62
     0
 10
-17.410444120414329
 20
7.4868578100177912
 30
0.0
 11
-17.410444120414329
 21
7.4868578100177912
 31
0.0
  0
LINE
  5
5394B
  8
0
 62
     0
 10
-17.476735381150569
 20
7.4205665492815518
 30
0.0
 11
-17.476735381150569
 21
7.4205665492815518
 31
0.0
  0
LINE
  5
5394C
  8
0
 62
     0
 10
-17.543026641886811
 20
7.3542752885453142
 30
0.0
 11
-17.543026641886811
 21
7.3542752885453142
 31
0.0
  0
LINE
  5
5394D
  8
0
 62
     0
 10
-17.609317902623051
 20
7.2879840278090748
 30
0.0
 11
-17.609317902623051
 21
7.2879840278090748
 31
0.0
  0
LINE
  5
5394E
  8
0
 62
     0
 10
-17.67560916335929
 20
7.2216927670728372
 30
0.0
 11
-17.67560916335929
 21
7.2216927670728372
 31
0.0
  0
LINE
  5
5394F
  8
0
 62
     0
 10
-17.74190042409553
 20
7.1554015063365979
 30
0.0
 11
-17.74190042409553
 21
7.1554015063365979
 31
0.0
  0
LINE
  5
53950
  8
0
 62
     0
 10
-17.808191684831769
 20
7.0891102456003603
 30
0.0
 11
-17.808191684831769
 21
7.0891102456003603
 31
0.0
  0
LINE
  5
53951
  8
0
 62
     0
 10
-17.874482945568008
 20
7.0228189848641209
 30
0.0
 11
-17.874482945568008
 21
7.0228189848641209
 31
0.0
  0
LINE
  5
53952
  8
0
 62
     0
 10
-18.007065467040459
 20
6.8902364633916289
 30
0.0
 11
-18.007065467040459
 21
6.8902364633916289
 31
0.0
  0
LINE
  5
53953
  8
0
 62
     0
 10
-18.073356727776702
 20
6.8239452026553913
 30
0.0
 11
-18.073356727776702
 21
6.8239452026553913
 31
0.0
  0
LINE
  5
53954
  8
0
 62
     0
 10
-18.139647988512941
 20
6.7576539419191519
 30
0.0
 11
-18.139647988512941
 21
6.7576539419191519
 31
0.0
  0
LINE
  5
53955
  8
0
 62
     0
 10
-18.20593924924918
 20
6.6913626811829143
 30
0.0
 11
-18.20593924924918
 21
6.6913626811829143
 31
0.0
  0
LINE
  5
53956
  8
0
 62
     0
 10
-18.27223050998542
 20
6.625071420446675
 30
0.0
 11
-18.27223050998542
 21
6.625071420446675
 31
0.0
  0
LINE
  5
53957
  8
0
 62
     0
 10
-18.338521770721659
 20
6.5587801597104374
 30
0.0
 11
-18.338521770721659
 21
6.5587801597104374
 31
0.0
  0
LINE
  5
53958
  8
0
 62
     0
 10
-18.404813031457898
 20
6.492488898974198
 30
0.0
 11
-18.404813031457898
 21
6.492488898974198
 31
0.0
  0
LINE
  5
53959
  8
0
 62
     0
 10
-18.471104292194141
 20
6.4261976382379604
 30
0.0
 11
-18.471104292194141
 21
6.4261976382379604
 31
0.0
  0
LINE
  5
5395A
  8
0
 62
     0
 10
-18.537395552930381
 20
6.3599063775017211
 30
0.0
 11
-18.537395552930381
 21
6.3599063775017211
 31
0.0
  0
LINE
  5
5395B
  8
0
 62
     0
 10
-18.60368681366662
 20
6.2936151167654826
 30
0.0
 11
-18.60368681366662
 21
6.2936151167654826
 31
0.0
  0
LINE
  5
5395C
  8
0
 62
     0
 10
-18.669978074402859
 20
6.2273238560292441
 30
0.0
 11
-18.669978074402859
 21
6.2273238560292441
 31
0.0
  0
LINE
  5
5395D
  8
0
 62
     0
 10
-18.736269335139099
 20
6.1610325952930056
 30
0.0
 11
-18.736269335139099
 21
6.1610325952930056
 31
0.0
  0
LINE
  5
5395E
  8
0
 62
     0
 10
-18.802560595875342
 20
6.094741334556768
 30
0.0
 11
-18.802560595875342
 21
6.094741334556768
 31
0.0
  0
LINE
  5
5395F
  8
0
 62
     0
 10
-18.868851856611581
 20
6.0284500738205287
 30
0.0
 11
-18.868851856611581
 21
6.0284500738205287
 31
0.0
  0
LINE
  5
53960
  8
0
 62
     0
 10
-18.93514311734781
 20
5.9621588130842911
 30
0.0
 11
-18.93514311734781
 21
5.9621588130842911
 31
0.0
  0
LINE
  5
53961
  8
0
 62
     0
 10
-19.001434378084049
 20
5.8958675523480517
 30
0.0
 11
-19.001434378084049
 21
5.8958675523480517
 31
0.0
  0
LINE
  5
53962
  8
0
 62
     0
 10
-19.067725638820288
 20
5.8295762916118141
 30
0.0
 11
-19.067725638820288
 21
5.8295762916118141
 31
0.0
  0
LINE
  5
53963
  8
0
 62
     0
 10
-19.134016899556531
 20
5.7632850308755748
 30
0.0
 11
-19.134016899556531
 21
5.7632850308755748
 31
0.0
  0
LINE
  5
53964
  8
0
 62
     0
 10
-19.200308160292771
 20
5.6969937701393372
 30
0.0
 11
-19.200308160292771
 21
5.6969937701393372
 31
0.0
  0
LINE
  5
53965
  8
0
 62
     0
 10
-19.26659942102901
 20
5.6307025094030978
 30
0.0
 11
-19.26659942102901
 21
5.6307025094030978
 31
0.0
  0
LINE
  5
53966
  8
0
 62
     0
 10
-19.332890681765249
 20
5.5644112486668602
 30
0.0
 11
-19.332890681765249
 21
5.5644112486668602
 31
0.0
  0
LINE
  5
53967
  8
0
 62
     0
 10
-19.399181942501489
 20
5.4981199879306208
 30
0.0
 11
-19.399181942501489
 21
5.4981199879306208
 31
0.0
  0
LINE
  5
53968
  8
0
 62
     0
 10
-19.465473203237728
 20
5.4318287271943833
 30
0.0
 11
-19.465473203237728
 21
5.4318287271943833
 31
0.0
  0
LINE
  5
53969
  8
0
 62
     0
 10
-19.531764463973971
 20
5.3655374664581439
 30
0.0
 11
-19.531764463973971
 21
5.3655374664581439
 31
0.0
  0
LINE
  5
5396A
  8
0
 62
     0
 10
-19.598055724710211
 20
5.2992462057219063
 30
0.0
 11
-19.598055724710211
 21
5.2992462057219063
 31
0.0
  0
LINE
  5
5396B
  8
0
 62
     0
 10
-19.66434698544645
 20
5.2329549449856669
 30
0.0
 11
-19.66434698544645
 21
5.2329549449856669
 31
0.0
  0
LINE
  5
5396C
  8
0
 62
     0
 10
-19.730638246182689
 20
5.1666636842494293
 30
0.0
 11
-19.730638246182689
 21
5.1666636842494293
 31
0.0
  0
LINE
  5
5396D
  8
0
 62
     0
 10
-19.796929506918929
 20
5.10037242351319
 30
0.0
 11
-19.796929506918929
 21
5.10037242351319
 31
0.0
  0
LINE
  5
5396E
  8
0
 62
     0
 10
-19.863220767655172
 20
5.0340811627769524
 30
0.0
 11
-19.863220767655172
 21
5.0340811627769524
 31
0.0
  0
LINE
  5
5396F
  8
0
 62
     0
 10
-19.9295120283914
 20
4.967789902040713
 30
0.0
 11
-19.9295120283914
 21
4.967789902040713
 31
0.0
  0
LINE
  5
53970
  8
0
 62
     0
 10
-19.99580328912765
 20
4.9014986413044754
 30
0.0
 11
-19.99580328912765
 21
4.9014986413044754
 31
0.0
  0
LINE
  5
53971
  8
0
 62
     0
 10
-20.06209454986389
 20
4.8352073805682361
 30
0.0
 11
-20.06209454986389
 21
4.8352073805682361
 31
0.0
  0
LINE
  5
53972
  8
0
 62
     0
 10
-20.128385810600118
 20
4.7689161198319976
 30
0.0
 11
-20.128385810600118
 21
4.7689161198319976
 31
0.0
  0
LINE
  5
53973
  8
0
 62
     0
 10
-20.194677071336368
 20
4.70262485909576
 30
0.0
 11
-20.194677071336368
 21
4.70262485909576
 31
0.0
  0
LINE
  5
53974
  8
0
 62
     0
 10
-20.260968332072601
 20
4.6363335983595206
 30
0.0
 11
-20.260968332072601
 21
4.6363335983595206
 31
0.0
  0
LINE
  5
53975
  8
0
 62
     0
 10
-20.327259592808851
 20
4.570042337623283
 30
0.0
 11
-20.327259592808851
 21
4.570042337623283
 31
0.0
  0
LINE
  5
53976
  8
0
 62
     0
 10
-20.393550853545079
 20
4.5037510768870437
 30
0.0
 11
-20.393550853545079
 21
4.5037510768870437
 31
0.0
  0
LINE
  5
53977
  8
0
 62
     0
 10
-17.50988101151869
 20
7.5200034403859091
 30
0.0
 11
-17.50988101151869
 21
7.5200034403859091
 31
0.0
  0
LINE
  5
53978
  8
0
 62
     0
 10
-17.576172272254929
 20
7.4537121796496697
 30
0.0
 11
-17.576172272254929
 21
7.4537121796496697
 31
0.0
  0
LINE
  5
53979
  8
0
 62
     0
 10
-17.642463532991169
 20
7.3874209189134321
 30
0.0
 11
-17.642463532991169
 21
7.3874209189134321
 31
0.0
  0
LINE
  5
5397A
  8
0
 62
     0
 10
-17.708754793727401
 20
7.3211296581771927
 30
0.0
 11
-17.708754793727401
 21
7.3211296581771927
 31
0.0
  0
LINE
  5
5397B
  8
0
 62
     0
 10
-17.775046054463651
 20
7.2548383974409552
 30
0.0
 11
-17.775046054463651
 21
7.2548383974409552
 31
0.0
  0
LINE
  5
5397C
  8
0
 62
     0
 10
-17.84133731519989
 20
7.1885471367047158
 30
0.0
 11
-17.84133731519989
 21
7.1885471367047158
 31
0.0
  0
LINE
  5
5397D
  8
0
 62
     0
 10
-17.907628575936119
 20
7.1222558759684782
 30
0.0
 11
-17.907628575936119
 21
7.1222558759684782
 31
0.0
  0
LINE
  5
5397E
  8
0
 62
     0
 10
-18.10650235814483
 20
6.9233820937597512
 30
0.0
 11
-18.10650235814483
 21
6.9233820937597512
 31
0.0
  0
LINE
  5
5397F
  8
0
 62
     0
 10
-18.172793618881059
 20
6.8570908330235119
 30
0.0
 11
-18.172793618881059
 21
6.8570908330235119
 31
0.0
  0
LINE
  5
53980
  8
0
 62
     0
 10
-18.239084879617302
 20
6.7907995722872743
 30
0.0
 11
-18.239084879617302
 21
6.7907995722872743
 31
0.0
  0
LINE
  5
53981
  8
0
 62
     0
 10
-18.305376140353541
 20
6.7245083115510349
 30
0.0
 11
-18.305376140353541
 21
6.7245083115510349
 31
0.0
  0
LINE
  5
53982
  8
0
 62
     0
 10
-18.37166740108978
 20
6.6582170508147973
 30
0.0
 11
-18.37166740108978
 21
6.6582170508147973
 31
0.0
  0
LINE
  5
53983
  8
0
 62
     0
 10
-18.43795866182602
 20
6.5919257900785579
 30
0.0
 11
-18.43795866182602
 21
6.5919257900785579
 31
0.0
  0
LINE
  5
53984
  8
0
 62
     0
 10
-18.504249922562259
 20
6.5256345293423204
 30
0.0
 11
-18.504249922562259
 21
6.5256345293423204
 31
0.0
  0
LINE
  5
53985
  8
0
 62
     0
 10
-18.570541183298499
 20
6.459343268606081
 30
0.0
 11
-18.570541183298499
 21
6.459343268606081
 31
0.0
  0
LINE
  5
53986
  8
0
 62
     0
 10
-18.636832444034741
 20
6.3930520078698434
 30
0.0
 11
-18.636832444034741
 21
6.3930520078698434
 31
0.0
  0
LINE
  5
53987
  8
0
 62
     0
 10
-18.703123704770981
 20
6.326760747133604
 30
0.0
 11
-18.703123704770981
 21
6.326760747133604
 31
0.0
  0
LINE
  5
53988
  8
0
 62
     0
 10
-18.76941496550722
 20
6.2604694863973656
 30
0.0
 11
-18.76941496550722
 21
6.2604694863973656
 31
0.0
  0
LINE
  5
53989
  8
0
 62
     0
 10
-18.83570622624346
 20
6.1941782256611271
 30
0.0
 11
-18.83570622624346
 21
6.1941782256611271
 31
0.0
  0
LINE
  5
5398A
  8
0
 62
     0
 10
-18.901997486979699
 20
6.1278869649248886
 30
0.0
 11
-18.901997486979699
 21
6.1278869649248886
 31
0.0
  0
LINE
  5
5398B
  8
0
 62
     0
 10
-18.968288747715938
 20
6.061595704188651
 30
0.0
 11
-18.968288747715938
 21
6.061595704188651
 31
0.0
  0
LINE
  5
5398C
  8
0
 62
     0
 10
-19.034580008452171
 20
5.9953044434524116
 30
0.0
 11
-19.034580008452171
 21
5.9953044434524116
 31
0.0
  0
LINE
  5
5398D
  8
0
 62
     0
 10
-19.100871269188421
 20
5.9290131827161741
 30
0.0
 11
-19.100871269188421
 21
5.9290131827161741
 31
0.0
  0
LINE
  5
5398E
  8
0
 62
     0
 10
-19.167162529924649
 20
5.8627219219799347
 30
0.0
 11
-19.167162529924649
 21
5.8627219219799347
 31
0.0
  0
LINE
  5
5398F
  8
0
 62
     0
 10
-19.233453790660889
 20
5.7964306612436971
 30
0.0
 11
-19.233453790660889
 21
5.7964306612436971
 31
0.0
  0
LINE
  5
53990
  8
0
 62
     0
 10
-19.299745051397132
 20
5.7301394005074577
 30
0.0
 11
-19.299745051397132
 21
5.7301394005074577
 31
0.0
  0
LINE
  5
53991
  8
0
 62
     0
 10
-19.366036312133371
 20
5.6638481397712201
 30
0.0
 11
-19.366036312133371
 21
5.6638481397712201
 31
0.0
  0
LINE
  5
53992
  8
0
 62
     0
 10
-19.43232757286961
 20
5.5975568790349808
 30
0.0
 11
-19.43232757286961
 21
5.5975568790349808
 31
0.0
  0
LINE
  5
53993
  8
0
 62
     0
 10
-19.49861883360585
 20
5.5312656182987432
 30
0.0
 11
-19.49861883360585
 21
5.5312656182987432
 31
0.0
  0
LINE
  5
53994
  8
0
 62
     0
 10
-19.564910094342089
 20
5.4649743575625038
 30
0.0
 11
-19.564910094342089
 21
5.4649743575625038
 31
0.0
  0
LINE
  5
53995
  8
0
 62
     0
 10
-19.631201355078328
 20
5.3986830968262662
 30
0.0
 11
-19.631201355078328
 21
5.3986830968262662
 31
0.0
  0
LINE
  5
53996
  8
0
 62
     0
 10
-19.697492615814571
 20
5.3323918360900269
 30
0.0
 11
-19.697492615814571
 21
5.3323918360900269
 31
0.0
  0
LINE
  5
53997
  8
0
 62
     0
 10
-19.763783876550811
 20
5.2661005753537893
 30
0.0
 11
-19.763783876550811
 21
5.2661005753537893
 31
0.0
  0
LINE
  5
53998
  8
0
 62
     0
 10
-19.83007513728705
 20
5.1998093146175499
 30
0.0
 11
-19.83007513728705
 21
5.1998093146175499
 31
0.0
  0
LINE
  5
53999
  8
0
 62
     0
 10
-19.896366398023289
 20
5.1335180538813123
 30
0.0
 11
-19.896366398023289
 21
5.1335180538813123
 31
0.0
  0
LINE
  5
5399A
  8
0
 62
     0
 10
-19.962657658759529
 20
5.067226793145073
 30
0.0
 11
-19.962657658759529
 21
5.067226793145073
 31
0.0
  0
LINE
  5
5399B
  8
0
 62
     0
 10
-20.028948919495772
 20
5.0009355324088354
 30
0.0
 11
-20.028948919495772
 21
5.0009355324088354
 31
0.0
  0
LINE
  5
5399C
  8
0
 62
     0
 10
-20.095240180232011
 20
4.934644271672596
 30
0.0
 11
-20.095240180232011
 21
4.934644271672596
 31
0.0
  0
LINE
  5
5399D
  8
0
 62
     0
 10
-20.16153144096825
 20
4.8683530109363584
 30
0.0
 11
-20.16153144096825
 21
4.8683530109363584
 31
0.0
  0
LINE
  5
5399E
  8
0
 62
     0
 10
-20.227822701704479
 20
4.8020617502001191
 30
0.0
 11
-20.227822701704479
 21
4.8020617502001191
 31
0.0
  0
LINE
  5
5399F
  8
0
 62
     0
 10
-20.294113962440729
 20
4.7357704894638806
 30
0.0
 11
-20.294113962440729
 21
4.7357704894638806
 31
0.0
  0
LINE
  5
539A0
  8
0
 62
     0
 10
-20.360405223176961
 20
4.6694792287276421
 30
0.0
 11
-20.360405223176961
 21
4.6694792287276421
 31
0.0
  0
LINE
  5
539A1
  8
0
 62
     0
 10
-20.426696483913211
 20
4.6031879679914036
 30
0.0
 11
-20.426696483913211
 21
4.6031879679914036
 31
0.0
  0
LINE
  5
539A2
  8
0
 62
     0
 10
-20.49298774464944
 20
4.536896707255166
 30
0.0
 11
-20.49298774464944
 21
4.536896707255166
 31
0.0
  0
LINE
  5
539A3
  8
0
 62
     0
 10
-17.609317902623051
 20
7.553149070754027
 30
0.0
 11
-17.609317902623051
 21
7.553149070754027
 31
0.0
  0
LINE
  5
539A4
  8
0
 62
     0
 10
-17.67560916335929
 20
7.4868578100177894
 30
0.0
 11
-17.67560916335929
 21
7.4868578100177894
 31
0.0
  0
LINE
  5
539A5
  8
0
 62
     0
 10
-17.74190042409553
 20
7.42056654928155
 30
0.0
 11
-17.74190042409553
 21
7.42056654928155
 31
0.0
  0
LINE
  5
539A6
  8
0
 62
     0
 10
-17.808191684831769
 20
7.3542752885453124
 30
0.0
 11
-17.808191684831769
 21
7.3542752885453124
 31
0.0
  0
LINE
  5
539A7
  8
0
 62
     0
 10
-17.874482945568008
 20
7.2879840278090731
 30
0.0
 11
-17.874482945568008
 21
7.2879840278090731
 31
0.0
  0
LINE
  5
539A8
  8
0
 62
     0
 10
-17.940774206304251
 20
7.2216927670728346
 30
0.0
 11
-17.940774206304251
 21
7.2216927670728346
 31
0.0
  0
LINE
  5
539A9
  8
0
 62
     0
 10
-18.007065467040491
 20
7.1554015063365961
 30
0.0
 11
-18.007065467040491
 21
7.1554015063365961
 31
0.0
  0
LINE
  5
539AA
  8
0
 62
     0
 10
-18.139647988512941
 20
7.0228189848641067
 30
0.0
 11
-18.139647988512941
 21
7.0228189848641067
 31
0.0
  0
LINE
  5
539AB
  8
0
 62
     0
 10
-18.20593924924918
 20
6.9565277241278691
 30
0.0
 11
-18.20593924924918
 21
6.9565277241278691
 31
0.0
  0
LINE
  5
539AC
  8
0
 62
     0
 10
-18.27223050998542
 20
6.8902364633916298
 30
0.0
 11
-18.27223050998542
 21
6.8902364633916298
 31
0.0
  0
LINE
  5
539AD
  8
0
 62
     0
 10
-18.338521770721659
 20
6.8239452026553922
 30
0.0
 11
-18.338521770721659
 21
6.8239452026553922
 31
0.0
  0
LINE
  5
539AE
  8
0
 62
     0
 10
-18.404813031457898
 20
6.7576539419191528
 30
0.0
 11
-18.404813031457898
 21
6.7576539419191528
 31
0.0
  0
LINE
  5
539AF
  8
0
 62
     0
 10
-18.471104292194141
 20
6.6913626811829152
 30
0.0
 11
-18.471104292194141
 21
6.6913626811829152
 31
0.0
  0
LINE
  5
539B0
  8
0
 62
     0
 10
-18.537395552930381
 20
6.6250714204466759
 30
0.0
 11
-18.537395552930381
 21
6.6250714204466759
 31
0.0
  0
LINE
  5
539B1
  8
0
 62
     0
 10
-18.60368681366662
 20
6.5587801597104383
 30
0.0
 11
-18.60368681366662
 21
6.5587801597104383
 31
0.0
  0
LINE
  5
539B2
  8
0
 62
     0
 10
-18.669978074402859
 20
6.4924888989741989
 30
0.0
 11
-18.669978074402859
 21
6.4924888989741989
 31
0.0
  0
LINE
  5
539B3
  8
0
 62
     0
 10
-18.736269335139099
 20
6.4261976382379613
 30
0.0
 11
-18.736269335139099
 21
6.4261976382379613
 31
0.0
  0
LINE
  5
539B4
  8
0
 62
     0
 10
-18.802560595875342
 20
6.3599063775017219
 30
0.0
 11
-18.802560595875342
 21
6.3599063775017219
 31
0.0
  0
LINE
  5
539B5
  8
0
 62
     0
 10
-18.868851856611581
 20
6.2936151167654844
 30
0.0
 11
-18.868851856611581
 21
6.2936151167654844
 31
0.0
  0
LINE
  5
539B6
  8
0
 62
     0
 10
-18.93514311734781
 20
6.227323856029245
 30
0.0
 11
-18.93514311734781
 21
6.227323856029245
 31
0.0
  0
LINE
  5
539B7
  8
0
 62
     0
 10
-19.001434378084049
 20
6.1610325952930074
 30
0.0
 11
-19.001434378084049
 21
6.1610325952930074
 31
0.0
  0
LINE
  5
539B8
  8
0
 62
     0
 10
-19.067725638820288
 20
6.094741334556768
 30
0.0
 11
-19.067725638820288
 21
6.094741334556768
 31
0.0
  0
LINE
  5
539B9
  8
0
 62
     0
 10
-19.134016899556531
 20
6.0284500738205304
 30
0.0
 11
-19.134016899556531
 21
6.0284500738205304
 31
0.0
  0
LINE
  5
539BA
  8
0
 62
     0
 10
-19.200308160292771
 20
5.9621588130842911
 30
0.0
 11
-19.200308160292771
 21
5.9621588130842911
 31
0.0
  0
LINE
  5
539BB
  8
0
 62
     0
 10
-19.26659942102901
 20
5.8958675523480526
 30
0.0
 11
-19.26659942102901
 21
5.8958675523480526
 31
0.0
  0
LINE
  5
539BC
  8
0
 62
     0
 10
-19.332890681765249
 20
5.829576291611815
 30
0.0
 11
-19.332890681765249
 21
5.829576291611815
 31
0.0
  0
LINE
  5
539BD
  8
0
 62
     0
 10
-19.399181942501489
 20
5.7632850308755756
 30
0.0
 11
-19.399181942501489
 21
5.7632850308755756
 31
0.0
  0
LINE
  5
539BE
  8
0
 62
     0
 10
-19.465473203237728
 20
5.6969937701393381
 30
0.0
 11
-19.465473203237728
 21
5.6969937701393381
 31
0.0
  0
LINE
  5
539BF
  8
0
 62
     0
 10
-19.531764463973971
 20
5.6307025094030987
 30
0.0
 11
-19.531764463973971
 21
5.6307025094030987
 31
0.0
  0
LINE
  5
539C0
  8
0
 62
     0
 10
-19.598055724710211
 20
5.5644112486668611
 30
0.0
 11
-19.598055724710211
 21
5.5644112486668611
 31
0.0
  0
LINE
  5
539C1
  8
0
 62
     0
 10
-19.66434698544645
 20
5.4981199879306217
 30
0.0
 11
-19.66434698544645
 21
5.4981199879306217
 31
0.0
  0
LINE
  5
539C2
  8
0
 62
     0
 10
-19.730638246182689
 20
5.4318287271943841
 30
0.0
 11
-19.730638246182689
 21
5.4318287271943841
 31
0.0
  0
LINE
  5
539C3
  8
0
 62
     0
 10
-19.796929506918929
 20
5.3655374664581448
 30
0.0
 11
-19.796929506918929
 21
5.3655374664581448
 31
0.0
  0
LINE
  5
539C4
  8
0
 62
     0
 10
-19.863220767655172
 20
5.2992462057219072
 30
0.0
 11
-19.863220767655172
 21
5.2992462057219072
 31
0.0
  0
LINE
  5
539C5
  8
0
 62
     0
 10
-19.9295120283914
 20
5.2329549449856678
 30
0.0
 11
-19.9295120283914
 21
5.2329549449856678
 31
0.0
  0
LINE
  5
539C6
  8
0
 62
     0
 10
-19.99580328912765
 20
5.1666636842494302
 30
0.0
 11
-19.99580328912765
 21
5.1666636842494302
 31
0.0
  0
LINE
  5
539C7
  8
0
 62
     0
 10
-20.06209454986389
 20
5.1003724235131909
 30
0.0
 11
-20.06209454986389
 21
5.1003724235131909
 31
0.0
  0
LINE
  5
539C8
  8
0
 62
     0
 10
-20.128385810600118
 20
5.0340811627769533
 30
0.0
 11
-20.128385810600118
 21
5.0340811627769533
 31
0.0
  0
LINE
  5
539C9
  8
0
 62
     0
 10
-20.194677071336368
 20
4.9677899020407139
 30
0.0
 11
-20.194677071336368
 21
4.9677899020407139
 31
0.0
  0
LINE
  5
539CA
  8
0
 62
     0
 10
-20.260968332072601
 20
4.9014986413044763
 30
0.0
 11
-20.260968332072601
 21
4.9014986413044763
 31
0.0
  0
LINE
  5
539CB
  8
0
 62
     0
 10
-20.327259592808851
 20
4.835207380568237
 30
0.0
 11
-20.327259592808851
 21
4.835207380568237
 31
0.0
  0
LINE
  5
539CC
  8
0
 62
     0
 10
-20.393550853545079
 20
4.7689161198319994
 30
0.0
 11
-20.393550853545079
 21
4.7689161198319994
 31
0.0
  0
LINE
  5
539CD
  8
0
 62
     0
 10
-20.459842114281319
 20
4.70262485909576
 30
0.0
 11
-20.459842114281319
 21
4.70262485909576
 31
0.0
  0
LINE
  5
539CE
  8
0
 62
     0
 10
-20.526133375017562
 20
4.6363335983595224
 30
0.0
 11
-20.526133375017562
 21
4.6363335983595224
 31
0.0
  0
LINE
  5
539CF
  8
0
 62
     0
 10
-17.708754793727401
 20
7.5862947011221467
 30
0.0
 11
-17.708754793727401
 21
7.5862947011221467
 31
0.0
  0
LINE
  5
539D0
  8
0
 62
     0
 10
-17.775046054463651
 20
7.5200034403859091
 30
0.0
 11
-17.775046054463651
 21
7.5200034403859091
 31
0.0
  0
LINE
  5
539D1
  8
0
 62
     0
 10
-17.84133731519989
 20
7.4537121796496697
 30
0.0
 11
-17.84133731519989
 21
7.4537121796496697
 31
0.0
  0
LINE
  5
539D2
  8
0
 62
     0
 10
-17.907628575936119
 20
7.3874209189134321
 30
0.0
 11
-17.907628575936119
 21
7.3874209189134321
 31
0.0
  0
LINE
  5
539D3
  8
0
 62
     0
 10
-17.973919836672358
 20
7.3211296581771927
 30
0.0
 11
-17.973919836672358
 21
7.3211296581771927
 31
0.0
  0
LINE
  5
539D4
  8
0
 62
     0
 10
-18.040211097408601
 20
7.2548383974409552
 30
0.0
 11
-18.040211097408601
 21
7.2548383974409552
 31
0.0
  0
LINE
  5
539D5
  8
0
 62
     0
 10
-18.106502358144841
 20
7.1885471367047158
 30
0.0
 11
-18.106502358144841
 21
7.1885471367047158
 31
0.0
  0
LINE
  5
539D6
  8
0
 62
     0
 10
-18.239084879617302
 20
7.0559646152322237
 30
0.0
 11
-18.239084879617302
 21
7.0559646152322237
 31
0.0
  0
LINE
  5
539D7
  8
0
 62
     0
 10
-18.305376140353541
 20
6.9896733544959861
 30
0.0
 11
-18.305376140353541
 21
6.9896733544959861
 31
0.0
  0
LINE
  5
539D8
  8
0
 62
     0
 10
-18.37166740108978
 20
6.9233820937597468
 30
0.0
 11
-18.37166740108978
 21
6.9233820937597468
 31
0.0
  0
LINE
  5
539D9
  8
0
 62
     0
 10
-18.43795866182602
 20
6.8570908330235092
 30
0.0
 11
-18.43795866182602
 21
6.8570908330235092
 31
0.0
  0
LINE
  5
539DA
  8
0
 62
     0
 10
-18.504249922562259
 20
6.7907995722872698
 30
0.0
 11
-18.504249922562259
 21
6.7907995722872698
 31
0.0
  0
LINE
  5
539DB
  8
0
 62
     0
 10
-18.570541183298499
 20
6.7245083115510322
 30
0.0
 11
-18.570541183298499
 21
6.7245083115510322
 31
0.0
  0
LINE
  5
539DC
  8
0
 62
     0
 10
-18.636832444034741
 20
6.6582170508147929
 30
0.0
 11
-18.636832444034741
 21
6.6582170508147929
 31
0.0
  0
LINE
  5
539DD
  8
0
 62
     0
 10
-18.703123704770981
 20
6.5919257900785553
 30
0.0
 11
-18.703123704770981
 21
6.5919257900785553
 31
0.0
  0
LINE
  5
539DE
  8
0
 62
     0
 10
-18.76941496550722
 20
6.5256345293423159
 30
0.0
 11
-18.76941496550722
 21
6.5256345293423159
 31
0.0
  0
LINE
  5
539DF
  8
0
 62
     0
 10
-18.835706226243449
 20
6.4593432686060783
 30
0.0
 11
-18.835706226243449
 21
6.4593432686060783
 31
0.0
  0
LINE
  5
539E0
  8
0
 62
     0
 10
-18.901997486979688
 20
6.393052007869839
 30
0.0
 11
-18.901997486979688
 21
6.393052007869839
 31
0.0
  0
LINE
  5
539E1
  8
0
 62
     0
 10
-18.968288747715931
 20
6.3267607471336014
 30
0.0
 11
-18.968288747715931
 21
6.3267607471336014
 31
0.0
  0
LINE
  5
539E2
  8
0
 62
     0
 10
-19.034580008452171
 20
6.260469486397362
 30
0.0
 11
-19.034580008452171
 21
6.260469486397362
 31
0.0
  0
LINE
  5
539E3
  8
0
 62
     0
 10
-19.10087126918841
 20
6.1941782256611244
 30
0.0
 11
-19.10087126918841
 21
6.1941782256611244
 31
0.0
  0
LINE
  5
539E4
  8
0
 62
     0
 10
-19.167162529924649
 20
6.127886964924885
 30
0.0
 11
-19.167162529924649
 21
6.127886964924885
 31
0.0
  0
LINE
  5
539E5
  8
0
 62
     0
 10
-19.233453790660889
 20
6.0615957041886466
 30
0.0
 11
-19.233453790660889
 21
6.0615957041886466
 31
0.0
  0
LINE
  5
539E6
  8
0
 62
     0
 10
-19.299745051397132
 20
5.9953044434524081
 30
0.0
 11
-19.299745051397132
 21
5.9953044434524081
 31
0.0
  0
LINE
  5
539E7
  8
0
 62
     0
 10
-19.366036312133371
 20
5.9290131827161696
 30
0.0
 11
-19.366036312133371
 21
5.9290131827161696
 31
0.0
  0
LINE
  5
539E8
  8
0
 62
     0
 10
-19.43232757286961
 20
5.862721921979932
 30
0.0
 11
-19.43232757286961
 21
5.862721921979932
 31
0.0
  0
LINE
  5
539E9
  8
0
 62
     0
 10
-19.49861883360585
 20
5.7964306612436927
 30
0.0
 11
-19.49861883360585
 21
5.7964306612436927
 31
0.0
  0
LINE
  5
539EA
  8
0
 62
     0
 10
-19.564910094342089
 20
5.7301394005074551
 30
0.0
 11
-19.564910094342089
 21
5.7301394005074551
 31
0.0
  0
LINE
  5
539EB
  8
0
 62
     0
 10
-19.631201355078328
 20
5.6638481397712157
 30
0.0
 11
-19.631201355078328
 21
5.6638481397712157
 31
0.0
  0
LINE
  5
539EC
  8
0
 62
     0
 10
-19.697492615814571
 20
5.5975568790349781
 30
0.0
 11
-19.697492615814571
 21
5.5975568790349781
 31
0.0
  0
LINE
  5
539ED
  8
0
 62
     0
 10
-19.763783876550811
 20
5.5312656182987388
 30
0.0
 11
-19.763783876550811
 21
5.5312656182987388
 31
0.0
  0
LINE
  5
539EE
  8
0
 62
     0
 10
-19.830075137287039
 20
5.4649743575625012
 30
0.0
 11
-19.830075137287039
 21
5.4649743575625012
 31
0.0
  0
LINE
  5
539EF
  8
0
 62
     0
 10
-19.896366398023279
 20
5.3986830968262618
 30
0.0
 11
-19.896366398023279
 21
5.3986830968262618
 31
0.0
  0
LINE
  5
539F0
  8
0
 62
     0
 10
-19.962657658759522
 20
5.3323918360900242
 30
0.0
 11
-19.962657658759522
 21
5.3323918360900242
 31
0.0
  0
LINE
  5
539F1
  8
0
 62
     0
 10
-20.028948919495761
 20
5.2661005753537848
 30
0.0
 11
-20.028948919495761
 21
5.2661005753537848
 31
0.0
  0
LINE
  5
539F2
  8
0
 62
     0
 10
-20.095240180232011
 20
5.1998093146175473
 30
0.0
 11
-20.095240180232011
 21
5.1998093146175473
 31
0.0
  0
LINE
  5
539F3
  8
0
 62
     0
 10
-20.16153144096824
 20
5.1335180538813079
 30
0.0
 11
-20.16153144096824
 21
5.1335180538813079
 31
0.0
  0
LINE
  5
539F4
  8
0
 62
     0
 10
-20.227822701704479
 20
5.0672267931450703
 30
0.0
 11
-20.227822701704479
 21
5.0672267931450703
 31
0.0
  0
LINE
  5
539F5
  8
0
 62
     0
 10
-20.294113962440719
 20
5.0009355324088309
 30
0.0
 11
-20.294113962440719
 21
5.0009355324088309
 31
0.0
  0
LINE
  5
539F6
  8
0
 62
     0
 10
-20.360405223176961
 20
4.9346442716725933
 30
0.0
 11
-20.360405223176961
 21
4.9346442716725933
 31
0.0
  0
LINE
  5
539F7
  8
0
 62
     0
 10
-20.426696483913201
 20
4.868353010936354
 30
0.0
 11
-20.426696483913201
 21
4.868353010936354
 31
0.0
  0
LINE
  5
539F8
  8
0
 62
     0
 10
-20.49298774464944
 20
4.8020617502001164
 30
0.0
 11
-20.49298774464944
 21
4.8020617502001164
 31
0.0
  0
LINE
  5
539F9
  8
0
 62
     0
 10
-20.55927900538568
 20
4.735770489463877
 30
0.0
 11
-20.55927900538568
 21
4.735770489463877
 31
0.0
  0
LINE
  5
539FA
  8
0
 62
     0
 10
-20.625570266121919
 20
4.6694792287276394
 30
0.0
 11
-20.625570266121919
 21
4.6694792287276394
 31
0.0
  0
LINE
  5
539FB
  8
0
 62
     0
 10
-17.741900424095519
 20
7.6857315922265093
 30
0.0
 11
-17.741900424095519
 21
7.6857315922265093
 31
0.0
  0
LINE
  5
539FC
  8
0
 62
     0
 10
-17.808191684831758
 20
7.6194403314902699
 30
0.0
 11
-17.808191684831758
 21
7.6194403314902699
 31
0.0
  0
LINE
  5
539FD
  8
0
 62
     0
 10
-17.874482945568001
 20
7.5531490707540323
 30
0.0
 11
-17.874482945568001
 21
7.5531490707540323
 31
0.0
  0
LINE
  5
539FE
  8
0
 62
     0
 10
-17.940774206304241
 20
7.4868578100177929
 30
0.0
 11
-17.940774206304241
 21
7.4868578100177929
 31
0.0
  0
LINE
  5
539FF
  8
0
 62
     0
 10
-18.00706546704048
 20
7.4205665492815553
 30
0.0
 11
-18.00706546704048
 21
7.4205665492815553
 31
0.0
  0
LINE
  5
53A00
  8
0
 62
     0
 10
-18.073356727776719
 20
7.354275288545316
 30
0.0
 11
-18.073356727776719
 21
7.354275288545316
 31
0.0
  0
LINE
  5
53A01
  8
0
 62
     0
 10
-18.139647988512959
 20
7.2879840278090784
 30
0.0
 11
-18.139647988512959
 21
7.2879840278090784
 31
0.0
  0
LINE
  5
53A02
  8
0
 62
     0
 10
-18.205939249249202
 20
7.221692767072839
 30
0.0
 11
-18.205939249249202
 21
7.221692767072839
 31
0.0
  0
LINE
  5
53A03
  8
0
 62
     0
 10
-18.338521770721659
 20
7.0891102456003461
 30
0.0
 11
-18.338521770721659
 21
7.0891102456003461
 31
0.0
  0
LINE
  5
53A04
  8
0
 62
     0
 10
-18.404813031457898
 20
7.0228189848641076
 30
0.0
 11
-18.404813031457898
 21
7.0228189848641076
 31
0.0
  0
LINE
  5
53A05
  8
0
 62
     0
 10
-18.471104292194141
 20
6.95652772412787
 30
0.0
 11
-18.471104292194141
 21
6.95652772412787
 31
0.0
  0
LINE
  5
53A06
  8
0
 62
     0
 10
-18.537395552930381
 20
6.8902364633916307
 30
0.0
 11
-18.537395552930381
 21
6.8902364633916307
 31
0.0
  0
LINE
  5
53A07
  8
0
 62
     0
 10
-18.60368681366662
 20
6.8239452026553931
 30
0.0
 11
-18.60368681366662
 21
6.8239452026553931
 31
0.0
  0
LINE
  5
53A08
  8
0
 62
     0
 10
-18.669978074402859
 20
6.7576539419191537
 30
0.0
 11
-18.669978074402859
 21
6.7576539419191537
 31
0.0
  0
LINE
  5
53A09
  8
0
 62
     0
 10
-18.736269335139099
 20
6.6913626811829161
 30
0.0
 11
-18.736269335139099
 21
6.6913626811829161
 31
0.0
  0
LINE
  5
53A0A
  8
0
 62
     0
 10
-18.802560595875342
 20
6.6250714204466767
 30
0.0
 11
-18.802560595875342
 21
6.6250714204466767
 31
0.0
  0
LINE
  5
53A0B
  8
0
 62
     0
 10
-18.868851856611581
 20
6.5587801597104392
 30
0.0
 11
-18.868851856611581
 21
6.5587801597104392
 31
0.0
  0
LINE
  5
53A0C
  8
0
 62
     0
 10
-18.93514311734781
 20
6.4924888989741998
 30
0.0
 11
-18.93514311734781
 21
6.4924888989741998
 31
0.0
  0
LINE
  5
53A0D
  8
0
 62
     0
 10
-19.001434378084049
 20
6.4261976382379622
 30
0.0
 11
-19.001434378084049
 21
6.4261976382379622
 31
0.0
  0
LINE
  5
53A0E
  8
0
 62
     0
 10
-19.067725638820288
 20
6.3599063775017228
 30
0.0
 11
-19.067725638820288
 21
6.3599063775017228
 31
0.0
  0
LINE
  5
53A0F
  8
0
 62
     0
 10
-19.134016899556531
 20
6.2936151167654852
 30
0.0
 11
-19.134016899556531
 21
6.2936151167654852
 31
0.0
  0
LINE
  5
53A10
  8
0
 62
     0
 10
-19.200308160292771
 20
6.2273238560292459
 30
0.0
 11
-19.200308160292771
 21
6.2273238560292459
 31
0.0
  0
LINE
  5
53A11
  8
0
 62
     0
 10
-19.26659942102901
 20
6.1610325952930083
 30
0.0
 11
-19.26659942102901
 21
6.1610325952930083
 31
0.0
  0
LINE
  5
53A12
  8
0
 62
     0
 10
-19.332890681765249
 20
6.0947413345567689
 30
0.0
 11
-19.332890681765249
 21
6.0947413345567689
 31
0.0
  0
LINE
  5
53A13
  8
0
 62
     0
 10
-19.399181942501489
 20
6.0284500738205313
 30
0.0
 11
-19.399181942501489
 21
6.0284500738205313
 31
0.0
  0
LINE
  5
53A14
  8
0
 62
     0
 10
-19.465473203237728
 20
5.962158813084292
 30
0.0
 11
-19.465473203237728
 21
5.962158813084292
 31
0.0
  0
LINE
  5
53A15
  8
0
 62
     0
 10
-19.531764463973971
 20
5.8958675523480544
 30
0.0
 11
-19.531764463973971
 21
5.8958675523480544
 31
0.0
  0
LINE
  5
53A16
  8
0
 62
     0
 10
-19.598055724710211
 20
5.829576291611815
 30
0.0
 11
-19.598055724710211
 21
5.829576291611815
 31
0.0
  0
LINE
  5
53A17
  8
0
 62
     0
 10
-19.66434698544645
 20
5.7632850308755774
 30
0.0
 11
-19.66434698544645
 21
5.7632850308755774
 31
0.0
  0
LINE
  5
53A18
  8
0
 62
     0
 10
-19.730638246182689
 20
5.6969937701393381
 30
0.0
 11
-19.730638246182689
 21
5.6969937701393381
 31
0.0
  0
LINE
  5
53A19
  8
0
 62
     0
 10
-19.796929506918929
 20
5.6307025094030996
 30
0.0
 11
-19.796929506918929
 21
5.6307025094030996
 31
0.0
  0
LINE
  5
53A1A
  8
0
 62
     0
 10
-19.863220767655172
 20
5.5644112486668611
 30
0.0
 11
-19.863220767655172
 21
5.5644112486668611
 31
0.0
  0
LINE
  5
53A1B
  8
0
 62
     0
 10
-19.9295120283914
 20
5.4981199879306226
 30
0.0
 11
-19.9295120283914
 21
5.4981199879306226
 31
0.0
  0
LINE
  5
53A1C
  8
0
 62
     0
 10
-19.99580328912765
 20
5.431828727194385
 30
0.0
 11
-19.99580328912765
 21
5.431828727194385
 31
0.0
  0
LINE
  5
53A1D
  8
0
 62
     0
 10
-20.06209454986389
 20
5.3655374664581457
 30
0.0
 11
-20.06209454986389
 21
5.3655374664581457
 31
0.0
  0
LINE
  5
53A1E
  8
0
 62
     0
 10
-20.128385810600118
 20
5.2992462057219081
 30
0.0
 11
-20.128385810600118
 21
5.2992462057219081
 31
0.0
  0
LINE
  5
53A1F
  8
0
 62
     0
 10
-20.194677071336368
 20
5.2329549449856687
 30
0.0
 11
-20.194677071336368
 21
5.2329549449856687
 31
0.0
  0
LINE
  5
53A20
  8
0
 62
     0
 10
-20.260968332072601
 20
5.1666636842494311
 30
0.0
 11
-20.260968332072601
 21
5.1666636842494311
 31
0.0
  0
LINE
  5
53A21
  8
0
 62
     0
 10
-20.327259592808851
 20
5.1003724235131918
 30
0.0
 11
-20.327259592808851
 21
5.1003724235131918
 31
0.0
  0
LINE
  5
53A22
  8
0
 62
     0
 10
-20.393550853545079
 20
5.0340811627769542
 30
0.0
 11
-20.393550853545079
 21
5.0340811627769542
 31
0.0
  0
LINE
  5
53A23
  8
0
 62
     0
 10
-20.459842114281319
 20
4.9677899020407148
 30
0.0
 11
-20.459842114281319
 21
4.9677899020407148
 31
0.0
  0
LINE
  5
53A24
  8
0
 62
     0
 10
-20.526133375017562
 20
4.9014986413044772
 30
0.0
 11
-20.526133375017562
 21
4.9014986413044772
 31
0.0
  0
LINE
  5
53A25
  8
0
 62
     0
 10
-20.592424635753801
 20
4.8352073805682378
 30
0.0
 11
-20.592424635753801
 21
4.8352073805682378
 31
0.0
  0
LINE
  5
53A26
  8
0
 62
     0
 10
-20.65871589649004
 20
4.7689161198320003
 30
0.0
 11
-20.65871589649004
 21
4.7689161198320003
 31
0.0
  0
LINE
  5
53A27
  8
0
 62
     0
 10
-20.72500715722628
 20
4.7026248590957609
 30
0.0
 11
-20.72500715722628
 21
4.7026248590957609
 31
0.0
  0
LINE
  5
53A28
  8
0
 62
     0
 10
-17.84133731519989
 20
7.7188772225946263
 30
0.0
 11
-17.84133731519989
 21
7.7188772225946263
 31
0.0
  0
LINE
  5
53A29
  8
0
 62
     0
 10
-17.907628575936119
 20
7.6525859618583869
 30
0.0
 11
-17.907628575936119
 21
7.6525859618583869
 31
0.0
  0
LINE
  5
53A2A
  8
0
 62
     0
 10
-17.973919836672358
 20
7.5862947011221493
 30
0.0
 11
-17.973919836672358
 21
7.5862947011221493
 31
0.0
  0
LINE
  5
53A2B
  8
0
 62
     0
 10
-18.040211097408601
 20
7.52000344038591
 30
0.0
 11
-18.040211097408601
 21
7.52000344038591
 31
0.0
  0
LINE
  5
53A2C
  8
0
 62
     0
 10
-18.106502358144841
 20
7.4537121796496724
 30
0.0
 11
-18.106502358144841
 21
7.4537121796496724
 31
0.0
  0
LINE
  5
53A2D
  8
0
 62
     0
 10
-18.17279361888108
 20
7.387420918913433
 30
0.0
 11
-18.17279361888108
 21
7.387420918913433
 31
0.0
  0
LINE
  5
53A2E
  8
0
 62
     0
 10
-18.23908487961732
 20
7.3211296581771954
 30
0.0
 11
-18.23908487961732
 21
7.3211296581771954
 31
0.0
  0
LINE
  5
53A2F
  8
0
 62
     0
 10
-18.43795866182602
 20
7.1222558759684658
 30
0.0
 11
-18.43795866182602
 21
7.1222558759684658
 31
0.0
  0
LINE
  5
53A30
  8
0
 62
     0
 10
-18.504249922562259
 20
7.0559646152322282
 30
0.0
 11
-18.504249922562259
 21
7.0559646152322282
 31
0.0
  0
LINE
  5
53A31
  8
0
 62
     0
 10
-18.570541183298499
 20
6.9896733544959888
 30
0.0
 11
-18.570541183298499
 21
6.9896733544959888
 31
0.0
  0
LINE
  5
53A32
  8
0
 62
     0
 10
-18.636832444034741
 20
6.9233820937597512
 30
0.0
 11
-18.636832444034741
 21
6.9233820937597512
 31
0.0
  0
LINE
  5
53A33
  8
0
 62
     0
 10
-18.703123704770981
 20
6.8570908330235119
 30
0.0
 11
-18.703123704770981
 21
6.8570908330235119
 31
0.0
  0
LINE
  5
53A34
  8
0
 62
     0
 10
-18.76941496550722
 20
6.7907995722872743
 30
0.0
 11
-18.76941496550722
 21
6.7907995722872743
 31
0.0
  0
LINE
  5
53A35
  8
0
 62
     0
 10
-18.835706226243449
 20
6.7245083115510349
 30
0.0
 11
-18.835706226243449
 21
6.7245083115510349
 31
0.0
  0
LINE
  5
53A36
  8
0
 62
     0
 10
-18.901997486979688
 20
6.6582170508147973
 30
0.0
 11
-18.901997486979688
 21
6.6582170508147973
 31
0.0
  0
LINE
  5
53A37
  8
0
 62
     0
 10
-18.968288747715931
 20
6.5919257900785579
 30
0.0
 11
-18.968288747715931
 21
6.5919257900785579
 31
0.0
  0
LINE
  5
53A38
  8
0
 62
     0
 10
-19.034580008452171
 20
6.5256345293423204
 30
0.0
 11
-19.034580008452171
 21
6.5256345293423204
 31
0.0
  0
LINE
  5
53A39
  8
0
 62
     0
 10
-19.10087126918841
 20
6.459343268606081
 30
0.0
 11
-19.10087126918841
 21
6.459343268606081
 31
0.0
  0
LINE
  5
53A3A
  8
0
 62
     0
 10
-19.167162529924649
 20
6.3930520078698434
 30
0.0
 11
-19.167162529924649
 21
6.3930520078698434
 31
0.0
  0
LINE
  5
53A3B
  8
0
 62
     0
 10
-19.233453790660889
 20
6.326760747133604
 30
0.0
 11
-19.233453790660889
 21
6.326760747133604
 31
0.0
  0
LINE
  5
53A3C
  8
0
 62
     0
 10
-19.299745051397132
 20
6.2604694863973656
 30
0.0
 11
-19.299745051397132
 21
6.2604694863973656
 31
0.0
  0
LINE
  5
53A3D
  8
0
 62
     0
 10
-19.366036312133371
 20
6.1941782256611271
 30
0.0
 11
-19.366036312133371
 21
6.1941782256611271
 31
0.0
  0
LINE
  5
53A3E
  8
0
 62
     0
 10
-19.43232757286961
 20
6.1278869649248886
 30
0.0
 11
-19.43232757286961
 21
6.1278869649248886
 31
0.0
  0
LINE
  5
53A3F
  8
0
 62
     0
 10
-19.49861883360585
 20
6.061595704188651
 30
0.0
 11
-19.49861883360585
 21
6.061595704188651
 31
0.0
  0
LINE
  5
53A40
  8
0
 62
     0
 10
-19.564910094342089
 20
5.9953044434524116
 30
0.0
 11
-19.564910094342089
 21
5.9953044434524116
 31
0.0
  0
LINE
  5
53A41
  8
0
 62
     0
 10
-19.631201355078328
 20
5.9290131827161741
 30
0.0
 11
-19.631201355078328
 21
5.9290131827161741
 31
0.0
  0
LINE
  5
53A42
  8
0
 62
     0
 10
-19.697492615814571
 20
5.8627219219799347
 30
0.0
 11
-19.697492615814571
 21
5.8627219219799347
 31
0.0
  0
LINE
  5
53A43
  8
0
 62
     0
 10
-19.763783876550811
 20
5.7964306612436971
 30
0.0
 11
-19.763783876550811
 21
5.7964306612436971
 31
0.0
  0
LINE
  5
53A44
  8
0
 62
     0
 10
-19.830075137287039
 20
5.7301394005074577
 30
0.0
 11
-19.830075137287039
 21
5.7301394005074577
 31
0.0
  0
LINE
  5
53A45
  8
0
 62
     0
 10
-19.896366398023279
 20
5.6638481397712201
 30
0.0
 11
-19.896366398023279
 21
5.6638481397712201
 31
0.0
  0
LINE
  5
53A46
  8
0
 62
     0
 10
-19.962657658759522
 20
5.5975568790349808
 30
0.0
 11
-19.962657658759522
 21
5.5975568790349808
 31
0.0
  0
LINE
  5
53A47
  8
0
 62
     0
 10
-20.028948919495761
 20
5.5312656182987432
 30
0.0
 11
-20.028948919495761
 21
5.5312656182987432
 31
0.0
  0
LINE
  5
53A48
  8
0
 62
     0
 10
-20.095240180232011
 20
5.4649743575625038
 30
0.0
 11
-20.095240180232011
 21
5.4649743575625038
 31
0.0
  0
LINE
  5
53A49
  8
0
 62
     0
 10
-20.16153144096824
 20
5.3986830968262662
 30
0.0
 11
-20.16153144096824
 21
5.3986830968262662
 31
0.0
  0
LINE
  5
53A4A
  8
0
 62
     0
 10
-20.227822701704479
 20
5.3323918360900269
 30
0.0
 11
-20.227822701704479
 21
5.3323918360900269
 31
0.0
  0
LINE
  5
53A4B
  8
0
 62
     0
 10
-20.294113962440719
 20
5.2661005753537893
 30
0.0
 11
-20.294113962440719
 21
5.2661005753537893
 31
0.0
  0
LINE
  5
53A4C
  8
0
 62
     0
 10
-20.360405223176961
 20
5.1998093146175499
 30
0.0
 11
-20.360405223176961
 21
5.1998093146175499
 31
0.0
  0
LINE
  5
53A4D
  8
0
 62
     0
 10
-20.426696483913201
 20
5.1335180538813123
 30
0.0
 11
-20.426696483913201
 21
5.1335180538813123
 31
0.0
  0
LINE
  5
53A4E
  8
0
 62
     0
 10
-20.49298774464944
 20
5.067226793145073
 30
0.0
 11
-20.49298774464944
 21
5.067226793145073
 31
0.0
  0
LINE
  5
53A4F
  8
0
 62
     0
 10
-20.55927900538568
 20
5.0009355324088354
 30
0.0
 11
-20.55927900538568
 21
5.0009355324088354
 31
0.0
  0
LINE
  5
53A50
  8
0
 62
     0
 10
-20.625570266121919
 20
4.934644271672596
 30
0.0
 11
-20.625570266121919
 21
4.934644271672596
 31
0.0
  0
LINE
  5
53A51
  8
0
 62
     0
 10
-20.691861526858158
 20
4.8683530109363584
 30
0.0
 11
-20.691861526858158
 21
4.8683530109363584
 31
0.0
  0
LINE
  5
53A52
  8
0
 62
     0
 10
-20.758152787594401
 20
4.8020617502001191
 30
0.0
 11
-20.758152787594401
 21
4.8020617502001191
 31
0.0
  0
LINE
  5
53A53
  8
0
 62
     0
 10
-20.824444048330641
 20
4.7357704894638806
 30
0.0
 11
-20.824444048330641
 21
4.7357704894638806
 31
0.0
  0
LINE
  5
53A54
  8
0
 62
     0
 10
-17.940774206304241
 20
7.7520228529627433
 30
0.0
 11
-17.940774206304241
 21
7.7520228529627433
 31
0.0
  0
LINE
  5
53A55
  8
0
 62
     0
 10
-18.00706546704048
 20
7.6857315922265039
 30
0.0
 11
-18.00706546704048
 21
7.6857315922265039
 31
0.0
  0
LINE
  5
53A56
  8
0
 62
     0
 10
-18.073356727776719
 20
7.6194403314902663
 30
0.0
 11
-18.073356727776719
 21
7.6194403314902663
 31
0.0
  0
LINE
  5
53A57
  8
0
 62
     0
 10
-18.139647988512959
 20
7.553149070754027
 30
0.0
 11
-18.139647988512959
 21
7.553149070754027
 31
0.0
  0
LINE
  5
53A58
  8
0
 62
     0
 10
-18.205939249249202
 20
7.4868578100177894
 30
0.0
 11
-18.205939249249202
 21
7.4868578100177894
 31
0.0
  0
LINE
  5
53A59
  8
0
 62
     0
 10
-18.272230509985441
 20
7.42056654928155
 30
0.0
 11
-18.272230509985441
 21
7.42056654928155
 31
0.0
  0
LINE
  5
53A5A
  8
0
 62
     0
 10
-18.33852177072168
 20
7.3542752885453124
 30
0.0
 11
-18.33852177072168
 21
7.3542752885453124
 31
0.0
  0
LINE
  5
53A5B
  8
0
 62
     0
 10
-18.471104292194141
 20
7.2216927670728248
 30
0.0
 11
-18.471104292194141
 21
7.2216927670728248
 31
0.0
  0
LINE
  5
53A5C
  8
0
 62
     0
 10
-18.537395552930381
 20
7.1554015063365872
 30
0.0
 11
-18.537395552930381
 21
7.1554015063365872
 31
0.0
  0
LINE
  5
53A5D
  8
0
 62
     0
 10
-18.60368681366662
 20
7.0891102456003479
 30
0.0
 11
-18.60368681366662
 21
7.0891102456003479
 31
0.0
  0
LINE
  5
53A5E
  8
0
 62
     0
 10
-18.669978074402859
 20
7.0228189848641103
 30
0.0
 11
-18.669978074402859
 21
7.0228189848641103
 31
0.0
  0
LINE
  5
53A5F
  8
0
 62
     0
 10
-18.736269335139099
 20
6.9565277241278709
 30
0.0
 11
-18.736269335139099
 21
6.9565277241278709
 31
0.0
  0
LINE
  5
53A60
  8
0
 62
     0
 10
-18.802560595875342
 20
6.8902364633916333
 30
0.0
 11
-18.802560595875342
 21
6.8902364633916333
 31
0.0
  0
LINE
  5
53A61
  8
0
 62
     0
 10
-18.868851856611581
 20
6.8239452026553939
 30
0.0
 11
-18.868851856611581
 21
6.8239452026553939
 31
0.0
  0
LINE
  5
53A62
  8
0
 62
     0
 10
-18.93514311734781
 20
6.7576539419191564
 30
0.0
 11
-18.93514311734781
 21
6.7576539419191564
 31
0.0
  0
LINE
  5
53A63
  8
0
 62
     0
 10
-19.001434378084049
 20
6.691362681182917
 30
0.0
 11
-19.001434378084049
 21
6.691362681182917
 31
0.0
  0
LINE
  5
53A64
  8
0
 62
     0
 10
-19.067725638820288
 20
6.6250714204466794
 30
0.0
 11
-19.067725638820288
 21
6.6250714204466794
 31
0.0
  0
LINE
  5
53A65
  8
0
 62
     0
 10
-19.134016899556531
 20
6.55878015971044
 30
0.0
 11
-19.134016899556531
 21
6.55878015971044
 31
0.0
  0
LINE
  5
53A66
  8
0
 62
     0
 10
-19.200308160292771
 20
6.4924888989742016
 30
0.0
 11
-19.200308160292771
 21
6.4924888989742016
 31
0.0
  0
LINE
  5
53A67
  8
0
 62
     0
 10
-19.26659942102901
 20
6.4261976382379631
 30
0.0
 11
-19.26659942102901
 21
6.4261976382379631
 31
0.0
  0
LINE
  5
53A68
  8
0
 62
     0
 10
-19.332890681765249
 20
6.3599063775017246
 30
0.0
 11
-19.332890681765249
 21
6.3599063775017246
 31
0.0
  0
LINE
  5
53A69
  8
0
 62
     0
 10
-19.399181942501489
 20
6.293615116765487
 30
0.0
 11
-19.399181942501489
 21
6.293615116765487
 31
0.0
  0
LINE
  5
53A6A
  8
0
 62
     0
 10
-19.465473203237728
 20
6.2273238560292477
 30
0.0
 11
-19.465473203237728
 21
6.2273238560292477
 31
0.0
  0
LINE
  5
53A6B
  8
0
 62
     0
 10
-19.531764463973971
 20
6.1610325952930101
 30
0.0
 11
-19.531764463973971
 21
6.1610325952930101
 31
0.0
  0
LINE
  5
53A6C
  8
0
 62
     0
 10
-19.598055724710211
 20
6.0947413345567707
 30
0.0
 11
-19.598055724710211
 21
6.0947413345567707
 31
0.0
  0
LINE
  5
53A6D
  8
0
 62
     0
 10
-19.66434698544645
 20
6.0284500738205331
 30
0.0
 11
-19.66434698544645
 21
6.0284500738205331
 31
0.0
  0
LINE
  5
53A6E
  8
0
 62
     0
 10
-19.730638246182689
 20
5.9621588130842937
 30
0.0
 11
-19.730638246182689
 21
5.9621588130842937
 31
0.0
  0
LINE
  5
53A6F
  8
0
 62
     0
 10
-19.796929506918929
 20
5.8958675523480562
 30
0.0
 11
-19.796929506918929
 21
5.8958675523480562
 31
0.0
  0
LINE
  5
53A70
  8
0
 62
     0
 10
-19.863220767655172
 20
5.8295762916118168
 30
0.0
 11
-19.863220767655172
 21
5.8295762916118168
 31
0.0
  0
LINE
  5
53A71
  8
0
 62
     0
 10
-19.9295120283914
 20
5.7632850308755792
 30
0.0
 11
-19.9295120283914
 21
5.7632850308755792
 31
0.0
  0
LINE
  5
53A72
  8
0
 62
     0
 10
-19.99580328912765
 20
5.6969937701393398
 30
0.0
 11
-19.99580328912765
 21
5.6969937701393398
 31
0.0
  0
LINE
  5
53A73
  8
0
 62
     0
 10
-20.06209454986389
 20
5.6307025094031022
 30
0.0
 11
-20.06209454986389
 21
5.6307025094031022
 31
0.0
  0
LINE
  5
53A74
  8
0
 62
     0
 10
-20.128385810600118
 20
5.5644112486668629
 30
0.0
 11
-20.128385810600118
 21
5.5644112486668629
 31
0.0
  0
LINE
  5
53A75
  8
0
 62
     0
 10
-20.194677071336368
 20
5.4981199879306253
 30
0.0
 11
-20.194677071336368
 21
5.4981199879306253
 31
0.0
  0
LINE
  5
53A76
  8
0
 62
     0
 10
-20.260968332072601
 20
5.4318287271943859
 30
0.0
 11
-20.260968332072601
 21
5.4318287271943859
 31
0.0
  0
LINE
  5
53A77
  8
0
 62
     0
 10
-20.327259592808851
 20
5.3655374664581483
 30
0.0
 11
-20.327259592808851
 21
5.3655374664581483
 31
0.0
  0
LINE
  5
53A78
  8
0
 62
     0
 10
-20.393550853545079
 20
5.299246205721909
 30
0.0
 11
-20.393550853545079
 21
5.299246205721909
 31
0.0
  0
LINE
  5
53A79
  8
0
 62
     0
 10
-20.459842114281319
 20
5.2329549449856714
 30
0.0
 11
-20.459842114281319
 21
5.2329549449856714
 31
0.0
  0
LINE
  5
53A7A
  8
0
 62
     0
 10
-20.526133375017562
 20
5.166663684249432
 30
0.0
 11
-20.526133375017562
 21
5.166663684249432
 31
0.0
  0
LINE
  5
53A7B
  8
0
 62
     0
 10
-20.592424635753801
 20
5.1003724235131944
 30
0.0
 11
-20.592424635753801
 21
5.1003724235131944
 31
0.0
  0
LINE
  5
53A7C
  8
0
 62
     0
 10
-20.65871589649004
 20
5.0340811627769551
 30
0.0
 11
-20.65871589649004
 21
5.0340811627769551
 31
0.0
  0
LINE
  5
53A7D
  8
0
 62
     0
 10
-20.72500715722628
 20
4.9677899020407166
 30
0.0
 11
-20.72500715722628
 21
4.9677899020407166
 31
0.0
  0
LINE
  5
53A7E
  8
0
 62
     0
 10
-20.791298417962519
 20
4.9014986413044781
 30
0.0
 11
-20.791298417962519
 21
4.9014986413044781
 31
0.0
  0
LINE
  5
53A7F
  8
0
 62
     0
 10
-20.857589678698758
 20
4.8352073805682396
 30
0.0
 11
-20.857589678698758
 21
4.8352073805682396
 31
0.0
  0
LINE
  5
53A80
  8
0
 62
     0
 10
-18.040211097408601
 20
7.7851684833308639
 30
0.0
 11
-18.040211097408601
 21
7.7851684833308639
 31
0.0
  0
LINE
  5
53A81
  8
0
 62
     0
 10
-18.106502358144841
 20
7.7188772225946263
 30
0.0
 11
-18.106502358144841
 21
7.7188772225946263
 31
0.0
  0
LINE
  5
53A82
  8
0
 62
     0
 10
-18.17279361888108
 20
7.6525859618583869
 30
0.0
 11
-18.17279361888108
 21
7.6525859618583869
 31
0.0
  0
LINE
  5
53A83
  8
0
 62
     0
 10
-18.23908487961732
 20
7.5862947011221493
 30
0.0
 11
-18.23908487961732
 21
7.5862947011221493
 31
0.0
  0
LINE
  5
53A84
  8
0
 62
     0
 10
-18.305376140353559
 20
7.52000344038591
 30
0.0
 11
-18.305376140353559
 21
7.52000344038591
 31
0.0
  0
LINE
  5
53A85
  8
0
 62
     0
 10
-18.371667401089798
 20
7.4537121796496724
 30
0.0
 11
-18.371667401089798
 21
7.4537121796496724
 31
0.0
  0
LINE
  5
53A86
  8
0
 62
     0
 10
-18.437958661826041
 20
7.387420918913433
 30
0.0
 11
-18.437958661826041
 21
7.387420918913433
 31
0.0
  0
LINE
  5
53A87
  8
0
 62
     0
 10
-18.570541183298491
 20
7.2548383974409463
 30
0.0
 11
-18.570541183298491
 21
7.2548383974409463
 31
0.0
  0
LINE
  5
53A88
  8
0
 62
     0
 10
-18.636832444034731
 20
7.1885471367047069
 30
0.0
 11
-18.636832444034731
 21
7.1885471367047069
 31
0.0
  0
LINE
  5
53A89
  8
0
 62
     0
 10
-18.70312370477097
 20
7.1222558759684693
 30
0.0
 11
-18.70312370477097
 21
7.1222558759684693
 31
0.0
  0
LINE
  5
53A8A
  8
0
 62
     0
 10
-18.76941496550721
 20
7.05596461523223
 30
0.0
 11
-18.76941496550721
 21
7.05596461523223
 31
0.0
  0
LINE
  5
53A8B
  8
0
 62
     0
 10
-18.835706226243449
 20
6.9896733544959924
 30
0.0
 11
-18.835706226243449
 21
6.9896733544959924
 31
0.0
  0
LINE
  5
53A8C
  8
0
 62
     0
 10
-18.901997486979688
 20
6.923382093759753
 30
0.0
 11
-18.901997486979688
 21
6.923382093759753
 31
0.0
  0
LINE
  5
53A8D
  8
0
 62
     0
 10
-18.968288747715931
 20
6.8570908330235154
 30
0.0
 11
-18.968288747715931
 21
6.8570908330235154
 31
0.0
  0
LINE
  5
53A8E
  8
0
 62
     0
 10
-19.034580008452171
 20
6.790799572287276
 30
0.0
 11
-19.034580008452171
 21
6.790799572287276
 31
0.0
  0
LINE
  5
53A8F
  8
0
 62
     0
 10
-19.10087126918841
 20
6.7245083115510376
 30
0.0
 11
-19.10087126918841
 21
6.7245083115510376
 31
0.0
  0
LINE
  5
53A90
  8
0
 62
     0
 10
-19.167162529924649
 20
6.6582170508147991
 30
0.0
 11
-19.167162529924649
 21
6.6582170508147991
 31
0.0
  0
LINE
  5
53A91
  8
0
 62
     0
 10
-19.233453790660889
 20
6.5919257900785606
 30
0.0
 11
-19.233453790660889
 21
6.5919257900785606
 31
0.0
  0
LINE
  5
53A92
  8
0
 62
     0
 10
-19.299745051397121
 20
6.525634529342323
 30
0.0
 11
-19.299745051397121
 21
6.525634529342323
 31
0.0
  0
LINE
  5
53A93
  8
0
 62
     0
 10
-19.366036312133371
 20
6.4593432686060837
 30
0.0
 11
-19.366036312133371
 21
6.4593432686060837
 31
0.0
  0
LINE
  5
53A94
  8
0
 62
     0
 10
-19.43232757286961
 20
6.3930520078698461
 30
0.0
 11
-19.43232757286961
 21
6.3930520078698461
 31
0.0
  0
LINE
  5
53A95
  8
0
 62
     0
 10
-19.498618833605839
 20
6.3267607471336067
 30
0.0
 11
-19.498618833605839
 21
6.3267607471336067
 31
0.0
  0
LINE
  5
53A96
  8
0
 62
     0
 10
-19.564910094342078
 20
6.2604694863973691
 30
0.0
 11
-19.564910094342078
 21
6.2604694863973691
 31
0.0
  0
LINE
  5
53A97
  8
0
 62
     0
 10
-19.631201355078321
 20
6.1941782256611297
 30
0.0
 11
-19.631201355078321
 21
6.1941782256611297
 31
0.0
  0
LINE
  5
53A98
  8
0
 62
     0
 10
-19.697492615814561
 20
6.1278869649248922
 30
0.0
 11
-19.697492615814561
 21
6.1278869649248922
 31
0.0
  0
LINE
  5
53A99
  8
0
 62
     0
 10
-19.7637838765508
 20
6.0615957041886528
 30
0.0
 11
-19.7637838765508
 21
6.0615957041886528
 31
0.0
  0
LINE
  5
53A9A
  8
0
 62
     0
 10
-19.830075137287039
 20
5.9953044434524152
 30
0.0
 11
-19.830075137287039
 21
5.9953044434524152
 31
0.0
  0
LINE
  5
53A9B
  8
0
 62
     0
 10
-19.896366398023279
 20
5.9290131827161758
 30
0.0
 11
-19.896366398023279
 21
5.9290131827161758
 31
0.0
  0
LINE
  5
53A9C
  8
0
 62
     0
 10
-19.962657658759522
 20
5.8627219219799382
 30
0.0
 11
-19.962657658759522
 21
5.8627219219799382
 31
0.0
  0
LINE
  5
53A9D
  8
0
 62
     0
 10
-20.028948919495761
 20
5.7964306612436989
 30
0.0
 11
-20.028948919495761
 21
5.7964306612436989
 31
0.0
  0
LINE
  5
53A9E
  8
0
 62
     0
 10
-20.095240180232
 20
5.7301394005074613
 30
0.0
 11
-20.095240180232
 21
5.7301394005074613
 31
0.0
  0
LINE
  5
53A9F
  8
0
 62
     0
 10
-20.16153144096824
 20
5.6638481397712219
 30
0.0
 11
-20.16153144096824
 21
5.6638481397712219
 31
0.0
  0
LINE
  5
53AA0
  8
0
 62
     0
 10
-20.227822701704479
 20
5.5975568790349843
 30
0.0
 11
-20.227822701704479
 21
5.5975568790349843
 31
0.0
  0
LINE
  5
53AA1
  8
0
 62
     0
 10
-20.294113962440719
 20
5.531265618298745
 30
0.0
 11
-20.294113962440719
 21
5.531265618298745
 31
0.0
  0
LINE
  5
53AA2
  8
0
 62
     0
 10
-20.360405223176961
 20
5.4649743575625074
 30
0.0
 11
-20.360405223176961
 21
5.4649743575625074
 31
0.0
  0
LINE
  5
53AA3
  8
0
 62
     0
 10
-20.426696483913201
 20
5.398683096826268
 30
0.0
 11
-20.426696483913201
 21
5.398683096826268
 31
0.0
  0
LINE
  5
53AA4
  8
0
 62
     0
 10
-20.49298774464944
 20
5.3323918360900304
 30
0.0
 11
-20.49298774464944
 21
5.3323918360900304
 31
0.0
  0
LINE
  5
53AA5
  8
0
 62
     0
 10
-20.55927900538568
 20
5.2661005753537911
 30
0.0
 11
-20.55927900538568
 21
5.2661005753537911
 31
0.0
  0
LINE
  5
53AA6
  8
0
 62
     0
 10
-20.625570266121908
 20
5.1998093146175526
 30
0.0
 11
-20.625570266121908
 21
5.1998093146175526
 31
0.0
  0
LINE
  5
53AA7
  8
0
 62
     0
 10
-20.691861526858158
 20
5.1335180538813141
 30
0.0
 11
-20.691861526858158
 21
5.1335180538813141
 31
0.0
  0
LINE
  5
53AA8
  8
0
 62
     0
 10
-20.758152787594391
 20
5.0672267931450756
 30
0.0
 11
-20.758152787594391
 21
5.0672267931450756
 31
0.0
  0
LINE
  5
53AA9
  8
0
 62
     0
 10
-20.82444404833063
 20
5.000935532408838
 30
0.0
 11
-20.82444404833063
 21
5.000935532408838
 31
0.0
  0
LINE
  5
53AAA
  8
0
 62
     0
 10
-20.890735309066869
 20
4.9346442716725987
 30
0.0
 11
-20.890735309066869
 21
4.9346442716725987
 31
0.0
  0
LINE
  5
53AAB
  8
0
 62
     0
 10
-20.957026569803109
 20
4.8683530109363611
 30
0.0
 11
-20.957026569803109
 21
4.8683530109363611
 31
0.0
  0
LINE
  5
53AAC
  8
0
 62
     0
 10
-18.139647988512959
 20
7.8183141136989809
 30
0.0
 11
-18.139647988512959
 21
7.8183141136989809
 31
0.0
  0
LINE
  5
53AAD
  8
0
 62
     0
 10
-18.205939249249202
 20
7.7520228529627433
 30
0.0
 11
-18.205939249249202
 21
7.7520228529627433
 31
0.0
  0
LINE
  5
53AAE
  8
0
 62
     0
 10
-18.272230509985441
 20
7.6857315922265039
 30
0.0
 11
-18.272230509985441
 21
7.6857315922265039
 31
0.0
  0
LINE
  5
53AAF
  8
0
 62
     0
 10
-18.33852177072168
 20
7.6194403314902663
 30
0.0
 11
-18.33852177072168
 21
7.6194403314902663
 31
0.0
  0
LINE
  5
53AB0
  8
0
 62
     0
 10
-18.40481303145792
 20
7.553149070754027
 30
0.0
 11
-18.40481303145792
 21
7.553149070754027
 31
0.0
  0
LINE
  5
53AB1
  8
0
 62
     0
 10
-18.471104292194159
 20
7.4868578100177894
 30
0.0
 11
-18.471104292194159
 21
7.4868578100177894
 31
0.0
  0
LINE
  5
53AB2
  8
0
 62
     0
 10
-18.537395552930398
 20
7.42056654928155
 30
0.0
 11
-18.537395552930398
 21
7.42056654928155
 31
0.0
  0
LINE
  5
53AB3
  8
0
 62
     0
 10
-18.669978074402849
 20
7.2879840278090633
 30
0.0
 11
-18.669978074402849
 21
7.2879840278090633
 31
0.0
  0
LINE
  5
53AB4
  8
0
 62
     0
 10
-18.736269335139092
 20
7.2216927670728239
 30
0.0
 11
-18.736269335139092
 21
7.2216927670728239
 31
0.0
  0
LINE
  5
53AB5
  8
0
 62
     0
 10
-18.802560595875331
 20
7.1554015063365863
 30
0.0
 11
-18.802560595875331
 21
7.1554015063365863
 31
0.0
  0
LINE
  5
53AB6
  8
0
 62
     0
 10
-18.86885185661157
 20
7.089110245600347
 30
0.0
 11
-18.86885185661157
 21
7.089110245600347
 31
0.0
  0
LINE
  5
53AB7
  8
0
 62
     0
 10
-18.93514311734781
 20
7.0228189848641094
 30
0.0
 11
-18.93514311734781
 21
7.0228189848641094
 31
0.0
  0
LINE
  5
53AB8
  8
0
 62
     0
 10
-19.001434378084049
 20
6.95652772412787
 30
0.0
 11
-19.001434378084049
 21
6.95652772412787
 31
0.0
  0
LINE
  5
53AB9
  8
0
 62
     0
 10
-19.067725638820288
 20
6.8902364633916324
 30
0.0
 11
-19.067725638820288
 21
6.8902364633916324
 31
0.0
  0
LINE
  5
53ABA
  8
0
 62
     0
 10
-19.134016899556531
 20
6.8239452026553931
 30
0.0
 11
-19.134016899556531
 21
6.8239452026553931
 31
0.0
  0
LINE
  5
53ABB
  8
0
 62
     0
 10
-19.20030816029276
 20
6.7576539419191546
 30
0.0
 11
-19.20030816029276
 21
6.7576539419191546
 31
0.0
  0
LINE
  5
53ABC
  8
0
 62
     0
 10
-19.26659942102901
 20
6.6913626811829161
 30
0.0
 11
-19.26659942102901
 21
6.6913626811829161
 31
0.0
  0
LINE
  5
53ABD
  8
0
 62
     0
 10
-19.332890681765239
 20
6.6250714204466776
 30
0.0
 11
-19.332890681765239
 21
6.6250714204466776
 31
0.0
  0
LINE
  5
53ABE
  8
0
 62
     0
 10
-19.399181942501482
 20
6.55878015971044
 30
0.0
 11
-19.399181942501482
 21
6.55878015971044
 31
0.0
  0
LINE
  5
53ABF
  8
0
 62
     0
 10
-19.465473203237721
 20
6.4924888989742007
 30
0.0
 11
-19.465473203237721
 21
6.4924888989742007
 31
0.0
  0
LINE
  5
53AC0
  8
0
 62
     0
 10
-19.53176446397396
 20
6.4261976382379631
 30
0.0
 11
-19.53176446397396
 21
6.4261976382379631
 31
0.0
  0
LINE
  5
53AC1
  8
0
 62
     0
 10
-19.5980557247102
 20
6.3599063775017237
 30
0.0
 11
-19.5980557247102
 21
6.3599063775017237
 31
0.0
  0
LINE
  5
53AC2
  8
0
 62
     0
 10
-19.664346985446439
 20
6.2936151167654861
 30
0.0
 11
-19.664346985446439
 21
6.2936151167654861
 31
0.0
  0
LINE
  5
53AC3
  8
0
 62
     0
 10
-19.730638246182679
 20
6.2273238560292468
 30
0.0
 11
-19.730638246182679
 21
6.2273238560292468
 31
0.0
  0
LINE
  5
53AC4
  8
0
 62
     0
 10
-19.796929506918922
 20
6.1610325952930092
 30
0.0
 11
-19.796929506918922
 21
6.1610325952930092
 31
0.0
  0
LINE
  5
53AC5
  8
0
 62
     0
 10
-19.863220767655161
 20
6.0947413345567698
 30
0.0
 11
-19.863220767655161
 21
6.0947413345567698
 31
0.0
  0
LINE
  5
53AC6
  8
0
 62
     0
 10
-19.9295120283914
 20
6.0284500738205322
 30
0.0
 11
-19.9295120283914
 21
6.0284500738205322
 31
0.0
  0
LINE
  5
53AC7
  8
0
 62
     0
 10
-19.99580328912764
 20
5.9621588130842929
 30
0.0
 11
-19.99580328912764
 21
5.9621588130842929
 31
0.0
  0
LINE
  5
53AC8
  8
0
 62
     0
 10
-20.062094549863879
 20
5.8958675523480553
 30
0.0
 11
-20.062094549863879
 21
5.8958675523480553
 31
0.0
  0
LINE
  5
53AC9
  8
0
 62
     0
 10
-20.128385810600118
 20
5.8295762916118159
 30
0.0
 11
-20.128385810600118
 21
5.8295762916118159
 31
0.0
  0
LINE
  5
53ACA
  8
0
 62
     0
 10
-20.194677071336361
 20
5.7632850308755783
 30
0.0
 11
-20.194677071336361
 21
5.7632850308755783
 31
0.0
  0
LINE
  5
53ACB
  8
0
 62
     0
 10
-20.260968332072601
 20
5.6969937701393389
 30
0.0
 11
-20.260968332072601
 21
5.6969937701393389
 31
0.0
  0
LINE
  5
53ACC
  8
0
 62
     0
 10
-20.32725959280884
 20
5.6307025094031014
 30
0.0
 11
-20.32725959280884
 21
5.6307025094031014
 31
0.0
  0
LINE
  5
53ACD
  8
0
 62
     0
 10
-20.393550853545069
 20
5.564411248666862
 30
0.0
 11
-20.393550853545069
 21
5.564411248666862
 31
0.0
  0
LINE
  5
53ACE
  8
0
 62
     0
 10
-20.459842114281319
 20
5.4981199879306244
 30
0.0
 11
-20.459842114281319
 21
5.4981199879306244
 31
0.0
  0
LINE
  5
53ACF
  8
0
 62
     0
 10
-20.526133375017551
 20
5.431828727194385
 30
0.0
 11
-20.526133375017551
 21
5.431828727194385
 31
0.0
  0
LINE
  5
53AD0
  8
0
 62
     0
 10
-20.592424635753801
 20
5.3655374664581474
 30
0.0
 11
-20.592424635753801
 21
5.3655374664581474
 31
0.0
  0
LINE
  5
53AD1
  8
0
 62
     0
 10
-20.65871589649003
 20
5.2992462057219081
 30
0.0
 11
-20.65871589649003
 21
5.2992462057219081
 31
0.0
  0
LINE
  5
53AD2
  8
0
 62
     0
 10
-20.725007157226269
 20
5.2329549449856696
 30
0.0
 11
-20.725007157226269
 21
5.2329549449856696
 31
0.0
  0
LINE
  5
53AD3
  8
0
 62
     0
 10
-20.791298417962508
 20
5.166663684249432
 30
0.0
 11
-20.791298417962508
 21
5.166663684249432
 31
0.0
  0
LINE
  5
53AD4
  8
0
 62
     0
 10
-20.857589678698751
 20
5.1003724235131926
 30
0.0
 11
-20.857589678698751
 21
5.1003724235131926
 31
0.0
  0
LINE
  5
53AD5
  8
0
 62
     0
 10
-20.923880939434991
 20
5.0340811627769551
 30
0.0
 11
-20.923880939434991
 21
5.0340811627769551
 31
0.0
  0
LINE
  5
53AD6
  8
0
 62
     0
 10
-20.99017220017123
 20
4.9677899020407157
 30
0.0
 11
-20.99017220017123
 21
4.9677899020407157
 31
0.0
  0
LINE
  5
53AD7
  8
0
 62
     0
 10
-21.056463460907469
 20
4.9014986413044781
 30
0.0
 11
-21.056463460907469
 21
4.9014986413044781
 31
0.0
  0
LINE
  5
53AD8
  8
0
 62
     0
 10
-18.17279361888108
 20
7.9177510048033408
 30
0.0
 11
-18.17279361888108
 21
7.9177510048033408
 31
0.0
  0
LINE
  5
53AD9
  8
0
 62
     0
 10
-18.23908487961732
 20
7.8514597440671032
 30
0.0
 11
-18.23908487961732
 21
7.8514597440671032
 31
0.0
  0
LINE
  5
53ADA
  8
0
 62
     0
 10
-18.305376140353559
 20
7.7851684833308639
 30
0.0
 11
-18.305376140353559
 21
7.7851684833308639
 31
0.0
  0
LINE
  5
53ADB
  8
0
 62
     0
 10
-18.371667401089798
 20
7.7188772225946263
 30
0.0
 11
-18.371667401089798
 21
7.7188772225946263
 31
0.0
  0
LINE
  5
53ADC
  8
0
 62
     0
 10
-18.437958661826041
 20
7.6525859618583869
 30
0.0
 11
-18.437958661826041
 21
7.6525859618583869
 31
0.0
  0
LINE
  5
53ADD
  8
0
 62
     0
 10
-18.50424992256227
 20
7.5862947011221493
 30
0.0
 11
-18.50424992256227
 21
7.5862947011221493
 31
0.0
  0
LINE
  5
53ADE
  8
0
 62
     0
 10
-18.570541183298509
 20
7.52000344038591
 30
0.0
 11
-18.570541183298509
 21
7.52000344038591
 31
0.0
  0
LINE
  5
53ADF
  8
0
 62
     0
 10
-18.76941496550721
 20
7.3211296581771821
 30
0.0
 11
-18.76941496550721
 21
7.3211296581771821
 31
0.0
  0
LINE
  5
53AE0
  8
0
 62
     0
 10
-18.835706226243449
 20
7.2548383974409436
 30
0.0
 11
-18.835706226243449
 21
7.2548383974409436
 31
0.0
  0
LINE
  5
53AE1
  8
0
 62
     0
 10
-18.901997486979688
 20
7.188547136704706
 30
0.0
 11
-18.901997486979688
 21
7.188547136704706
 31
0.0
  0
LINE
  5
53AE2
  8
0
 62
     0
 10
-18.968288747715931
 20
7.1222558759684667
 30
0.0
 11
-18.968288747715931
 21
7.1222558759684667
 31
0.0
  0
LINE
  5
53AE3
  8
0
 62
     0
 10
-19.034580008452171
 20
7.0559646152322291
 30
0.0
 11
-19.034580008452171
 21
7.0559646152322291
 31
0.0
  0
LINE
  5
53AE4
  8
0
 62
     0
 10
-19.10087126918841
 20
6.9896733544959897
 30
0.0
 11
-19.10087126918841
 21
6.9896733544959897
 31
0.0
  0
LINE
  5
53AE5
  8
0
 62
     0
 10
-19.167162529924649
 20
6.9233820937597521
 30
0.0
 11
-19.167162529924649
 21
6.9233820937597521
 31
0.0
  0
LINE
  5
53AE6
  8
0
 62
     0
 10
-19.233453790660889
 20
6.8570908330235127
 30
0.0
 11
-19.233453790660889
 21
6.8570908330235127
 31
0.0
  0
LINE
  5
53AE7
  8
0
 62
     0
 10
-19.299745051397121
 20
6.7907995722872752
 30
0.0
 11
-19.299745051397121
 21
6.7907995722872752
 31
0.0
  0
LINE
  5
53AE8
  8
0
 62
     0
 10
-19.366036312133371
 20
6.7245083115510358
 30
0.0
 11
-19.366036312133371
 21
6.7245083115510358
 31
0.0
  0
LINE
  5
53AE9
  8
0
 62
     0
 10
-19.43232757286961
 20
6.6582170508147982
 30
0.0
 11
-19.43232757286961
 21
6.6582170508147982
 31
0.0
  0
LINE
  5
53AEA
  8
0
 62
     0
 10
-19.498618833605839
 20
6.5919257900785588
 30
0.0
 11
-19.498618833605839
 21
6.5919257900785588
 31
0.0
  0
LINE
  5
53AEB
  8
0
 62
     0
 10
-19.564910094342078
 20
6.5256345293423212
 30
0.0
 11
-19.564910094342078
 21
6.5256345293423212
 31
0.0
  0
LINE
  5
53AEC
  8
0
 62
     0
 10
-19.631201355078321
 20
6.4593432686060819
 30
0.0
 11
-19.631201355078321
 21
6.4593432686060819
 31
0.0
  0
LINE
  5
53AED
  8
0
 62
     0
 10
-19.697492615814561
 20
6.3930520078698443
 30
0.0
 11
-19.697492615814561
 21
6.3930520078698443
 31
0.0
  0
LINE
  5
53AEE
  8
0
 62
     0
 10
-19.7637838765508
 20
6.3267607471336049
 30
0.0
 11
-19.7637838765508
 21
6.3267607471336049
 31
0.0
  0
LINE
  5
53AEF
  8
0
 62
     0
 10
-19.830075137287039
 20
6.2604694863973673
 30
0.0
 11
-19.830075137287039
 21
6.2604694863973673
 31
0.0
  0
LINE
  5
53AF0
  8
0
 62
     0
 10
-19.896366398023279
 20
6.194178225661128
 30
0.0
 11
-19.896366398023279
 21
6.194178225661128
 31
0.0
  0
LINE
  5
53AF1
  8
0
 62
     0
 10
-19.962657658759522
 20
6.1278869649248904
 30
0.0
 11
-19.962657658759522
 21
6.1278869649248904
 31
0.0
  0
LINE
  5
53AF2
  8
0
 62
     0
 10
-20.028948919495761
 20
6.061595704188651
 30
0.0
 11
-20.028948919495761
 21
6.061595704188651
 31
0.0
  0
LINE
  5
53AF3
  8
0
 62
     0
 10
-20.095240180232
 20
5.9953044434524134
 30
0.0
 11
-20.095240180232
 21
5.9953044434524134
 31
0.0
  0
LINE
  5
53AF4
  8
0
 62
     0
 10
-20.16153144096824
 20
5.9290131827161741
 30
0.0
 11
-20.16153144096824
 21
5.9290131827161741
 31
0.0
  0
LINE
  5
53AF5
  8
0
 62
     0
 10
-20.227822701704479
 20
5.8627219219799356
 30
0.0
 11
-20.227822701704479
 21
5.8627219219799356
 31
0.0
  0
LINE
  5
53AF6
  8
0
 62
     0
 10
-20.294113962440719
 20
5.7964306612436971
 30
0.0
 11
-20.294113962440719
 21
5.7964306612436971
 31
0.0
  0
LINE
  5
53AF7
  8
0
 62
     0
 10
-20.360405223176961
 20
5.7301394005074586
 30
0.0
 11
-20.360405223176961
 21
5.7301394005074586
 31
0.0
  0
LINE
  5
53AF8
  8
0
 62
     0
 10
-20.426696483913201
 20
5.663848139771221
 30
0.0
 11
-20.426696483913201
 21
5.663848139771221
 31
0.0
  0
LINE
  5
53AF9
  8
0
 62
     0
 10
-20.49298774464944
 20
5.5975568790349817
 30
0.0
 11
-20.49298774464944
 21
5.5975568790349817
 31
0.0
  0
LINE
  5
53AFA
  8
0
 62
     0
 10
-20.55927900538568
 20
5.5312656182987441
 30
0.0
 11
-20.55927900538568
 21
5.5312656182987441
 31
0.0
  0
LINE
  5
53AFB
  8
0
 62
     0
 10
-20.625570266121908
 20
5.4649743575625047
 30
0.0
 11
-20.625570266121908
 21
5.4649743575625047
 31
0.0
  0
LINE
  5
53AFC
  8
0
 62
     0
 10
-20.691861526858158
 20
5.3986830968262671
 30
0.0
 11
-20.691861526858158
 21
5.3986830968262671
 31
0.0
  0
LINE
  5
53AFD
  8
0
 62
     0
 10
-20.758152787594391
 20
5.3323918360900278
 30
0.0
 11
-20.758152787594391
 21
5.3323918360900278
 31
0.0
  0
LINE
  5
53AFE
  8
0
 62
     0
 10
-20.82444404833063
 20
5.2661005753537902
 30
0.0
 11
-20.82444404833063
 21
5.2661005753537902
 31
0.0
  0
LINE
  5
53AFF
  8
0
 62
     0
 10
-20.890735309066869
 20
5.1998093146175508
 30
0.0
 11
-20.890735309066869
 21
5.1998093146175508
 31
0.0
  0
LINE
  5
53B00
  8
0
 62
     0
 10
-20.957026569803109
 20
5.1335180538813132
 30
0.0
 11
-20.957026569803109
 21
5.1335180538813132
 31
0.0
  0
LINE
  5
53B01
  8
0
 62
     0
 10
-21.023317830539352
 20
5.0672267931450738
 30
0.0
 11
-21.023317830539352
 21
5.0672267931450738
 31
0.0
  0
LINE
  5
53B02
  8
0
 62
     0
 10
-21.089609091275591
 20
5.0009355324088363
 30
0.0
 11
-21.089609091275591
 21
5.0009355324088363
 31
0.0
  0
LINE
  5
53B03
  8
0
 62
     0
 10
-21.15590035201183
 20
4.9346442716725969
 30
0.0
 11
-21.15590035201183
 21
4.9346442716725969
 31
0.0
  0
LINE
  5
53B04
  8
0
 62
     0
 10
-18.272230509985441
 20
7.9508966351714614
 30
0.0
 11
-18.272230509985441
 21
7.9508966351714614
 31
0.0
  0
LINE
  5
53B05
  8
0
 62
     0
 10
-18.33852177072168
 20
7.884605374435222
 30
0.0
 11
-18.33852177072168
 21
7.884605374435222
 31
0.0
  0
LINE
  5
53B06
  8
0
 62
     0
 10
-18.404813031457909
 20
7.8183141136989844
 30
0.0
 11
-18.404813031457909
 21
7.8183141136989844
 31
0.0
  0
LINE
  5
53B07
  8
0
 62
     0
 10
-18.471104292194148
 20
7.7520228529627451
 30
0.0
 11
-18.471104292194148
 21
7.7520228529627451
 31
0.0
  0
LINE
  5
53B08
  8
0
 62
     0
 10
-18.537395552930391
 20
7.6857315922265066
 30
0.0
 11
-18.537395552930391
 21
7.6857315922265066
 31
0.0
  0
LINE
  5
53B09
  8
0
 62
     0
 10
-18.603686813666631
 20
7.619440331490269
 30
0.0
 11
-18.603686813666631
 21
7.619440331490269
 31
0.0
  0
LINE
  5
53B0A
  8
0
 62
     0
 10
-18.66997807440287
 20
7.5531490707540296
 30
0.0
 11
-18.66997807440287
 21
7.5531490707540296
 31
0.0
  0
LINE
  5
53B0B
  8
0
 62
     0
 10
-18.802560595875331
 20
7.4205665492815402
 30
0.0
 11
-18.802560595875331
 21
7.4205665492815402
 31
0.0
  0
LINE
  5
53B0C
  8
0
 62
     0
 10
-18.86885185661157
 20
7.3542752885453009
 30
0.0
 11
-18.86885185661157
 21
7.3542752885453009
 31
0.0
  0
LINE
  5
53B0D
  8
0
 62
     0
 10
-18.93514311734781
 20
7.2879840278090633
 30
0.0
 11
-18.93514311734781
 21
7.2879840278090633
 31
0.0
  0
LINE
  5
53B0E
  8
0
 62
     0
 10
-19.001434378084049
 20
7.2216927670728239
 30
0.0
 11
-19.001434378084049
 21
7.2216927670728239
 31
0.0
  0
LINE
  5
53B0F
  8
0
 62
     0
 10
-19.067725638820288
 20
7.1554015063365863
 30
0.0
 11
-19.067725638820288
 21
7.1554015063365863
 31
0.0
  0
LINE
  5
53B10
  8
0
 62
     0
 10
-19.134016899556531
 20
7.089110245600347
 30
0.0
 11
-19.134016899556531
 21
7.089110245600347
 31
0.0
  0
LINE
  5
53B11
  8
0
 62
     0
 10
-19.200308160292771
 20
7.0228189848641094
 30
0.0
 11
-19.200308160292771
 21
7.0228189848641094
 31
0.0
  0
LINE
  5
53B12
  8
0
 62
     0
 10
-19.26659942102901
 20
6.95652772412787
 30
0.0
 11
-19.26659942102901
 21
6.95652772412787
 31
0.0
  0
LINE
  5
53B13
  8
0
 62
     0
 10
-19.332890681765249
 20
6.8902364633916324
 30
0.0
 11
-19.332890681765249
 21
6.8902364633916324
 31
0.0
  0
LINE
  5
53B14
  8
0
 62
     0
 10
-19.399181942501489
 20
6.8239452026553931
 30
0.0
 11
-19.399181942501489
 21
6.8239452026553931
 31
0.0
  0
LINE
  5
53B15
  8
0
 62
     0
 10
-19.465473203237728
 20
6.7576539419191546
 30
0.0
 11
-19.465473203237728
 21
6.7576539419191546
 31
0.0
  0
LINE
  5
53B16
  8
0
 62
     0
 10
-19.531764463973971
 20
6.6913626811829161
 30
0.0
 11
-19.531764463973971
 21
6.6913626811829161
 31
0.0
  0
LINE
  5
53B17
  8
0
 62
     0
 10
-19.598055724710211
 20
6.6250714204466776
 30
0.0
 11
-19.598055724710211
 21
6.6250714204466776
 31
0.0
  0
LINE
  5
53B18
  8
0
 62
     0
 10
-19.664346985446439
 20
6.55878015971044
 30
0.0
 11
-19.664346985446439
 21
6.55878015971044
 31
0.0
  0
LINE
  5
53B19
  8
0
 62
     0
 10
-19.730638246182679
 20
6.4924888989742007
 30
0.0
 11
-19.730638246182679
 21
6.4924888989742007
 31
0.0
  0
LINE
  5
53B1A
  8
0
 62
     0
 10
-19.796929506918922
 20
6.4261976382379631
 30
0.0
 11
-19.796929506918922
 21
6.4261976382379631
 31
0.0
  0
LINE
  5
53B1B
  8
0
 62
     0
 10
-19.863220767655161
 20
6.3599063775017237
 30
0.0
 11
-19.863220767655161
 21
6.3599063775017237
 31
0.0
  0
LINE
  5
53B1C
  8
0
 62
     0
 10
-19.9295120283914
 20
6.2936151167654861
 30
0.0
 11
-19.9295120283914
 21
6.2936151167654861
 31
0.0
  0
LINE
  5
53B1D
  8
0
 62
     0
 10
-19.99580328912764
 20
6.2273238560292468
 30
0.0
 11
-19.99580328912764
 21
6.2273238560292468
 31
0.0
  0
LINE
  5
53B1E
  8
0
 62
     0
 10
-20.062094549863879
 20
6.1610325952930092
 30
0.0
 11
-20.062094549863879
 21
6.1610325952930092
 31
0.0
  0
LINE
  5
53B1F
  8
0
 62
     0
 10
-20.128385810600118
 20
6.0947413345567698
 30
0.0
 11
-20.128385810600118
 21
6.0947413345567698
 31
0.0
  0
LINE
  5
53B20
  8
0
 62
     0
 10
-20.194677071336361
 20
6.0284500738205322
 30
0.0
 11
-20.194677071336361
 21
6.0284500738205322
 31
0.0
  0
LINE
  5
53B21
  8
0
 62
     0
 10
-20.260968332072601
 20
5.9621588130842929
 30
0.0
 11
-20.260968332072601
 21
5.9621588130842929
 31
0.0
  0
LINE
  5
53B22
  8
0
 62
     0
 10
-20.32725959280884
 20
5.8958675523480553
 30
0.0
 11
-20.32725959280884
 21
5.8958675523480553
 31
0.0
  0
LINE
  5
53B23
  8
0
 62
     0
 10
-20.393550853545079
 20
5.8295762916118159
 30
0.0
 11
-20.393550853545079
 21
5.8295762916118159
 31
0.0
  0
LINE
  5
53B24
  8
0
 62
     0
 10
-20.459842114281319
 20
5.7632850308755783
 30
0.0
 11
-20.459842114281319
 21
5.7632850308755783
 31
0.0
  0
LINE
  5
53B25
  8
0
 62
     0
 10
-20.526133375017562
 20
5.6969937701393389
 30
0.0
 11
-20.526133375017562
 21
5.6969937701393389
 31
0.0
  0
LINE
  5
53B26
  8
0
 62
     0
 10
-20.592424635753801
 20
5.6307025094031014
 30
0.0
 11
-20.592424635753801
 21
5.6307025094031014
 31
0.0
  0
LINE
  5
53B27
  8
0
 62
     0
 10
-20.65871589649004
 20
5.564411248666862
 30
0.0
 11
-20.65871589649004
 21
5.564411248666862
 31
0.0
  0
LINE
  5
53B28
  8
0
 62
     0
 10
-20.72500715722628
 20
5.4981199879306244
 30
0.0
 11
-20.72500715722628
 21
5.4981199879306244
 31
0.0
  0
LINE
  5
53B29
  8
0
 62
     0
 10
-20.791298417962519
 20
5.431828727194385
 30
0.0
 11
-20.791298417962519
 21
5.431828727194385
 31
0.0
  0
LINE
  5
53B2A
  8
0
 62
     0
 10
-20.857589678698758
 20
5.3655374664581474
 30
0.0
 11
-20.857589678698758
 21
5.3655374664581474
 31
0.0
  0
LINE
  5
53B2B
  8
0
 62
     0
 10
-20.923880939434991
 20
5.2992462057219081
 30
0.0
 11
-20.923880939434991
 21
5.2992462057219081
 31
0.0
  0
LINE
  5
53B2C
  8
0
 62
     0
 10
-20.99017220017123
 20
5.2329549449856696
 30
0.0
 11
-20.99017220017123
 21
5.2329549449856696
 31
0.0
  0
LINE
  5
53B2D
  8
0
 62
     0
 10
-21.056463460907469
 20
5.166663684249432
 30
0.0
 11
-21.056463460907469
 21
5.166663684249432
 31
0.0
  0
LINE
  5
53B2E
  8
0
 62
     0
 10
-21.122754721643709
 20
5.1003724235131926
 30
0.0
 11
-21.122754721643709
 21
5.1003724235131926
 31
0.0
  0
LINE
  5
53B2F
  8
0
 62
     0
 10
-21.189045982379952
 20
5.0340811627769551
 30
0.0
 11
-21.189045982379952
 21
5.0340811627769551
 31
0.0
  0
LINE
  5
53B30
  8
0
 62
     0
 10
-18.371667401089791
 20
7.9840422655395811
 30
0.0
 11
-18.371667401089791
 21
7.9840422655395811
 31
0.0
  0
LINE
  5
53B31
  8
0
 62
     0
 10
-18.43795866182603
 20
7.9177510048033417
 30
0.0
 11
-18.43795866182603
 21
7.9177510048033417
 31
0.0
  0
LINE
  5
53B32
  8
0
 62
     0
 10
-18.50424992256227
 20
7.8514597440671041
 30
0.0
 11
-18.50424992256227
 21
7.8514597440671041
 31
0.0
  0
LINE
  5
53B33
  8
0
 62
     0
 10
-18.570541183298509
 20
7.7851684833308648
 30
0.0
 11
-18.570541183298509
 21
7.7851684833308648
 31
0.0
  0
LINE
  5
53B34
  8
0
 62
     0
 10
-18.636832444034749
 20
7.7188772225946272
 30
0.0
 11
-18.636832444034749
 21
7.7188772225946272
 31
0.0
  0
LINE
  5
53B35
  8
0
 62
     0
 10
-18.703123704770992
 20
7.6525859618583878
 30
0.0
 11
-18.703123704770992
 21
7.6525859618583878
 31
0.0
  0
LINE
  5
53B36
  8
0
 62
     0
 10
-18.769414965507231
 20
7.5862947011221502
 30
0.0
 11
-18.769414965507231
 21
7.5862947011221502
 31
0.0
  0
LINE
  5
53B37
  8
0
 62
     0
 10
-18.901997486979688
 20
7.453712179649659
 30
0.0
 11
-18.901997486979688
 21
7.453712179649659
 31
0.0
  0
LINE
  5
53B38
  8
0
 62
     0
 10
-18.968288747715931
 20
7.3874209189134206
 30
0.0
 11
-18.968288747715931
 21
7.3874209189134206
 31
0.0
  0
LINE
  5
53B39
  8
0
 62
     0
 10
-19.034580008452171
 20
7.3211296581771821
 30
0.0
 11
-19.034580008452171
 21
7.3211296581771821
 31
0.0
  0
LINE
  5
53B3A
  8
0
 62
     0
 10
-19.10087126918841
 20
7.2548383974409436
 30
0.0
 11
-19.10087126918841
 21
7.2548383974409436
 31
0.0
  0
LINE
  5
53B3B
  8
0
 62
     0
 10
-19.167162529924649
 20
7.188547136704706
 30
0.0
 11
-19.167162529924649
 21
7.188547136704706
 31
0.0
  0
LINE
  5
53B3C
  8
0
 62
     0
 10
-19.233453790660889
 20
7.1222558759684667
 30
0.0
 11
-19.233453790660889
 21
7.1222558759684667
 31
0.0
  0
LINE
  5
53B3D
  8
0
 62
     0
 10
-19.299745051397121
 20
7.0559646152322291
 30
0.0
 11
-19.299745051397121
 21
7.0559646152322291
 31
0.0
  0
LINE
  5
53B3E
  8
0
 62
     0
 10
-19.366036312133371
 20
6.9896733544959897
 30
0.0
 11
-19.366036312133371
 21
6.9896733544959897
 31
0.0
  0
LINE
  5
53B3F
  8
0
 62
     0
 10
-19.43232757286961
 20
6.9233820937597521
 30
0.0
 11
-19.43232757286961
 21
6.9233820937597521
 31
0.0
  0
LINE
  5
53B40
  8
0
 62
     0
 10
-19.498618833605839
 20
6.8570908330235127
 30
0.0
 11
-19.498618833605839
 21
6.8570908330235127
 31
0.0
  0
LINE
  5
53B41
  8
0
 62
     0
 10
-19.564910094342078
 20
6.7907995722872752
 30
0.0
 11
-19.564910094342078
 21
6.7907995722872752
 31
0.0
  0
LINE
  5
53B42
  8
0
 62
     0
 10
-19.631201355078321
 20
6.7245083115510358
 30
0.0
 11
-19.631201355078321
 21
6.7245083115510358
 31
0.0
  0
LINE
  5
53B43
  8
0
 62
     0
 10
-19.697492615814561
 20
6.6582170508147982
 30
0.0
 11
-19.697492615814561
 21
6.6582170508147982
 31
0.0
  0
LINE
  5
53B44
  8
0
 62
     0
 10
-19.7637838765508
 20
6.5919257900785588
 30
0.0
 11
-19.7637838765508
 21
6.5919257900785588
 31
0.0
  0
LINE
  5
53B45
  8
0
 62
     0
 10
-19.830075137287039
 20
6.5256345293423212
 30
0.0
 11
-19.830075137287039
 21
6.5256345293423212
 31
0.0
  0
LINE
  5
53B46
  8
0
 62
     0
 10
-19.896366398023279
 20
6.4593432686060819
 30
0.0
 11
-19.896366398023279
 21
6.4593432686060819
 31
0.0
  0
LINE
  5
53B47
  8
0
 62
     0
 10
-19.962657658759522
 20
6.3930520078698443
 30
0.0
 11
-19.962657658759522
 21
6.3930520078698443
 31
0.0
  0
LINE
  5
53B48
  8
0
 62
     0
 10
-20.028948919495761
 20
6.3267607471336049
 30
0.0
 11
-20.028948919495761
 21
6.3267607471336049
 31
0.0
  0
LINE
  5
53B49
  8
0
 62
     0
 10
-20.095240180232
 20
6.2604694863973673
 30
0.0
 11
-20.095240180232
 21
6.2604694863973673
 31
0.0
  0
LINE
  5
53B4A
  8
0
 62
     0
 10
-20.16153144096824
 20
6.194178225661128
 30
0.0
 11
-20.16153144096824
 21
6.194178225661128
 31
0.0
  0
LINE
  5
53B4B
  8
0
 62
     0
 10
-20.227822701704479
 20
6.1278869649248904
 30
0.0
 11
-20.227822701704479
 21
6.1278869649248904
 31
0.0
  0
LINE
  5
53B4C
  8
0
 62
     0
 10
-20.294113962440719
 20
6.061595704188651
 30
0.0
 11
-20.294113962440719
 21
6.061595704188651
 31
0.0
  0
LINE
  5
53B4D
  8
0
 62
     0
 10
-20.360405223176961
 20
5.9953044434524134
 30
0.0
 11
-20.360405223176961
 21
5.9953044434524134
 31
0.0
  0
LINE
  5
53B4E
  8
0
 62
     0
 10
-20.426696483913201
 20
5.9290131827161741
 30
0.0
 11
-20.426696483913201
 21
5.9290131827161741
 31
0.0
  0
LINE
  5
53B4F
  8
0
 62
     0
 10
-20.49298774464944
 20
5.8627219219799356
 30
0.0
 11
-20.49298774464944
 21
5.8627219219799356
 31
0.0
  0
LINE
  5
53B50
  8
0
 62
     0
 10
-20.55927900538568
 20
5.7964306612436971
 30
0.0
 11
-20.55927900538568
 21
5.7964306612436971
 31
0.0
  0
LINE
  5
53B51
  8
0
 62
     0
 10
-20.625570266121908
 20
5.7301394005074586
 30
0.0
 11
-20.625570266121908
 21
5.7301394005074586
 31
0.0
  0
LINE
  5
53B52
  8
0
 62
     0
 10
-20.691861526858158
 20
5.663848139771221
 30
0.0
 11
-20.691861526858158
 21
5.663848139771221
 31
0.0
  0
LINE
  5
53B53
  8
0
 62
     0
 10
-20.758152787594391
 20
5.5975568790349817
 30
0.0
 11
-20.758152787594391
 21
5.5975568790349817
 31
0.0
  0
LINE
  5
53B54
  8
0
 62
     0
 10
-20.82444404833063
 20
5.5312656182987441
 30
0.0
 11
-20.82444404833063
 21
5.5312656182987441
 31
0.0
  0
LINE
  5
53B55
  8
0
 62
     0
 10
-20.890735309066869
 20
5.4649743575625047
 30
0.0
 11
-20.890735309066869
 21
5.4649743575625047
 31
0.0
  0
LINE
  5
53B56
  8
0
 62
     0
 10
-20.957026569803109
 20
5.3986830968262671
 30
0.0
 11
-20.957026569803109
 21
5.3986830968262671
 31
0.0
  0
LINE
  5
53B57
  8
0
 62
     0
 10
-21.023317830539352
 20
5.3323918360900278
 30
0.0
 11
-21.023317830539352
 21
5.3323918360900278
 31
0.0
  0
LINE
  5
53B58
  8
0
 62
     0
 10
-21.089609091275591
 20
5.2661005753537902
 30
0.0
 11
-21.089609091275591
 21
5.2661005753537902
 31
0.0
  0
LINE
  5
53B59
  8
0
 62
     0
 10
-21.15590035201183
 20
5.1998093146175508
 30
0.0
 11
-21.15590035201183
 21
5.1998093146175508
 31
0.0
  0
LINE
  5
53B5A
  8
0
 62
     0
 10
-21.22219161274807
 20
5.1335180538813132
 30
0.0
 11
-21.22219161274807
 21
5.1335180538813132
 31
0.0
  0
LINE
  5
53B5B
  8
0
 62
     0
 10
-21.288482873484309
 20
5.0672267931450738
 30
0.0
 11
-21.288482873484309
 21
5.0672267931450738
 31
0.0
  0
LINE
  5
53B5C
  8
0
 62
     0
 10
-18.471104292194148
 20
8.0171878959077016
 30
0.0
 11
-18.471104292194148
 21
8.0171878959077016
 31
0.0
  0
LINE
  5
53B5D
  8
0
 62
     0
 10
-18.537395552930391
 20
7.9508966351714632
 30
0.0
 11
-18.537395552930391
 21
7.9508966351714632
 31
0.0
  0
LINE
  5
53B5E
  8
0
 62
     0
 10
-18.603686813666631
 20
7.8846053744352238
 30
0.0
 11
-18.603686813666631
 21
7.8846053744352238
 31
0.0
  0
LINE
  5
53B5F
  8
0
 62
     0
 10
-18.66997807440287
 20
7.8183141136989862
 30
0.0
 11
-18.66997807440287
 21
7.8183141136989862
 31
0.0
  0
LINE
  5
53B60
  8
0
 62
     0
 10
-18.736269335139109
 20
7.7520228529627468
 30
0.0
 11
-18.736269335139109
 21
7.7520228529627468
 31
0.0
  0
LINE
  5
53B61
  8
0
 62
     0
 10
-18.802560595875349
 20
7.6857315922265093
 30
0.0
 11
-18.802560595875349
 21
7.6857315922265093
 31
0.0
  0
LINE
  5
53B62
  8
0
 62
     0
 10
-18.868851856611592
 20
7.6194403314902699
 30
0.0
 11
-18.868851856611592
 21
7.6194403314902699
 31
0.0
  0
LINE
  5
53B63
  8
0
 62
     0
 10
-19.001434378084049
 20
7.4868578100177796
 30
0.0
 11
-19.001434378084049
 21
7.4868578100177796
 31
0.0
  0
LINE
  5
53B64
  8
0
 62
     0
 10
-19.067725638820288
 20
7.420566549281542
 30
0.0
 11
-19.067725638820288
 21
7.420566549281542
 31
0.0
  0
LINE
  5
53B65
  8
0
 62
     0
 10
-19.134016899556531
 20
7.3542752885453027
 30
0.0
 11
-19.134016899556531
 21
7.3542752885453027
 31
0.0
  0
LINE
  5
53B66
  8
0
 62
     0
 10
-19.200308160292771
 20
7.2879840278090651
 30
0.0
 11
-19.200308160292771
 21
7.2879840278090651
 31
0.0
  0
LINE
  5
53B67
  8
0
 62
     0
 10
-19.26659942102901
 20
7.2216927670728257
 30
0.0
 11
-19.26659942102901
 21
7.2216927670728257
 31
0.0
  0
LINE
  5
53B68
  8
0
 62
     0
 10
-19.332890681765249
 20
7.1554015063365881
 30
0.0
 11
-19.332890681765249
 21
7.1554015063365881
 31
0.0
  0
LINE
  5
53B69
  8
0
 62
     0
 10
-19.399181942501489
 20
7.0891102456003487
 30
0.0
 11
-19.399181942501489
 21
7.0891102456003487
 31
0.0
  0
LINE
  5
53B6A
  8
0
 62
     0
 10
-19.465473203237728
 20
7.0228189848641112
 30
0.0
 11
-19.465473203237728
 21
7.0228189848641112
 31
0.0
  0
LINE
  5
53B6B
  8
0
 62
     0
 10
-19.531764463973971
 20
6.9565277241278718
 30
0.0
 11
-19.531764463973971
 21
6.9565277241278718
 31
0.0
  0
LINE
  5
53B6C
  8
0
 62
     0
 10
-19.598055724710211
 20
6.8902364633916342
 30
0.0
 11
-19.598055724710211
 21
6.8902364633916342
 31
0.0
  0
LINE
  5
53B6D
  8
0
 62
     0
 10
-19.664346985446439
 20
6.8239452026553948
 30
0.0
 11
-19.664346985446439
 21
6.8239452026553948
 31
0.0
  0
LINE
  5
53B6E
  8
0
 62
     0
 10
-19.730638246182679
 20
6.7576539419191572
 30
0.0
 11
-19.730638246182679
 21
6.7576539419191572
 31
0.0
  0
LINE
  5
53B6F
  8
0
 62
     0
 10
-19.796929506918922
 20
6.6913626811829179
 30
0.0
 11
-19.796929506918922
 21
6.6913626811829179
 31
0.0
  0
LINE
  5
53B70
  8
0
 62
     0
 10
-19.863220767655161
 20
6.6250714204466803
 30
0.0
 11
-19.863220767655161
 21
6.6250714204466803
 31
0.0
  0
LINE
  5
53B71
  8
0
 62
     0
 10
-19.9295120283914
 20
6.5587801597104409
 30
0.0
 11
-19.9295120283914
 21
6.5587801597104409
 31
0.0
  0
LINE
  5
53B72
  8
0
 62
     0
 10
-19.99580328912764
 20
6.4924888989742033
 30
0.0
 11
-19.99580328912764
 21
6.4924888989742033
 31
0.0
  0
LINE
  5
53B73
  8
0
 62
     0
 10
-20.062094549863879
 20
6.426197638237964
 30
0.0
 11
-20.062094549863879
 21
6.426197638237964
 31
0.0
  0
LINE
  5
53B74
  8
0
 62
     0
 10
-20.128385810600118
 20
6.3599063775017264
 30
0.0
 11
-20.128385810600118
 21
6.3599063775017264
 31
0.0
  0
LINE
  5
53B75
  8
0
 62
     0
 10
-20.194677071336361
 20
6.293615116765487
 30
0.0
 11
-20.194677071336361
 21
6.293615116765487
 31
0.0
  0
LINE
  5
53B76
  8
0
 62
     0
 10
-20.260968332072601
 20
6.2273238560292494
 30
0.0
 11
-20.260968332072601
 21
6.2273238560292494
 31
0.0
  0
LINE
  5
53B77
  8
0
 62
     0
 10
-20.32725959280884
 20
6.1610325952930101
 30
0.0
 11
-20.32725959280884
 21
6.1610325952930101
 31
0.0
  0
LINE
  5
53B78
  8
0
 62
     0
 10
-20.393550853545079
 20
6.0947413345567716
 30
0.0
 11
-20.393550853545079
 21
6.0947413345567716
 31
0.0
  0
LINE
  5
53B79
  8
0
 62
     0
 10
-20.459842114281319
 20
6.0284500738205331
 30
0.0
 11
-20.459842114281319
 21
6.0284500738205331
 31
0.0
  0
LINE
  5
53B7A
  8
0
 62
     0
 10
-20.526133375017562
 20
5.9621588130842946
 30
0.0
 11
-20.526133375017562
 21
5.9621588130842946
 31
0.0
  0
LINE
  5
53B7B
  8
0
 62
     0
 10
-20.592424635753801
 20
5.895867552348057
 30
0.0
 11
-20.592424635753801
 21
5.895867552348057
 31
0.0
  0
LINE
  5
53B7C
  8
0
 62
     0
 10
-20.65871589649004
 20
5.8295762916118177
 30
0.0
 11
-20.65871589649004
 21
5.8295762916118177
 31
0.0
  0
LINE
  5
53B7D
  8
0
 62
     0
 10
-20.72500715722628
 20
5.7632850308755801
 30
0.0
 11
-20.72500715722628
 21
5.7632850308755801
 31
0.0
  0
LINE
  5
53B7E
  8
0
 62
     0
 10
-20.791298417962519
 20
5.6969937701393407
 30
0.0
 11
-20.791298417962519
 21
5.6969937701393407
 31
0.0
  0
LINE
  5
53B7F
  8
0
 62
     0
 10
-20.857589678698758
 20
5.6307025094031031
 30
0.0
 11
-20.857589678698758
 21
5.6307025094031031
 31
0.0
  0
LINE
  5
53B80
  8
0
 62
     0
 10
-20.923880939434991
 20
5.5644112486668638
 30
0.0
 11
-20.923880939434991
 21
5.5644112486668638
 31
0.0
  0
LINE
  5
53B81
  8
0
 62
     0
 10
-20.99017220017123
 20
5.4981199879306262
 30
0.0
 11
-20.99017220017123
 21
5.4981199879306262
 31
0.0
  0
LINE
  5
53B82
  8
0
 62
     0
 10
-21.056463460907469
 20
5.4318287271943868
 30
0.0
 11
-21.056463460907469
 21
5.4318287271943868
 31
0.0
  0
LINE
  5
53B83
  8
0
 62
     0
 10
-21.122754721643709
 20
5.3655374664581492
 30
0.0
 11
-21.122754721643709
 21
5.3655374664581492
 31
0.0
  0
LINE
  5
53B84
  8
0
 62
     0
 10
-21.189045982379952
 20
5.2992462057219099
 30
0.0
 11
-21.189045982379952
 21
5.2992462057219099
 31
0.0
  0
LINE
  5
53B85
  8
0
 62
     0
 10
-21.255337243116191
 20
5.2329549449856723
 30
0.0
 11
-21.255337243116191
 21
5.2329549449856723
 31
0.0
  0
LINE
  5
53B86
  8
0
 62
     0
 10
-21.32162850385243
 20
5.1666636842494329
 30
0.0
 11
-21.32162850385243
 21
5.1666636842494329
 31
0.0
  0
LINE
  5
53B87
  8
0
 62
     0
 10
-21.38791976458867
 20
5.1003724235131953
 30
0.0
 11
-21.38791976458867
 21
5.1003724235131953
 31
0.0
  0
LINE
  5
53B88
  8
0
 62
     0
 10
-18.50424992256227
 20
8.1166247870120607
 30
0.0
 11
-18.50424992256227
 21
8.1166247870120607
 31
0.0
  0
LINE
  5
53B89
  8
0
 62
     0
 10
-18.570541183298509
 20
8.0503335262758213
 30
0.0
 11
-18.570541183298509
 21
8.0503335262758213
 31
0.0
  0
LINE
  5
53B8A
  8
0
 62
     0
 10
-18.636832444034749
 20
7.9840422655395811
 30
0.0
 11
-18.636832444034749
 21
7.9840422655395811
 31
0.0
  0
LINE
  5
53B8B
  8
0
 62
     0
 10
-18.703123704770992
 20
7.9177510048033426
 30
0.0
 11
-18.703123704770992
 21
7.9177510048033426
 31
0.0
  0
LINE
  5
53B8C
  8
0
 62
     0
 10
-18.769414965507231
 20
7.851459744067105
 30
0.0
 11
-18.769414965507231
 21
7.851459744067105
 31
0.0
  0
LINE
  5
53B8D
  8
0
 62
     0
 10
-18.83570622624347
 20
7.7851684833308656
 30
0.0
 11
-18.83570622624347
 21
7.7851684833308656
 31
0.0
  0
LINE
  5
53B8E
  8
0
 62
     0
 10
-18.90199748697971
 20
7.7188772225946281
 30
0.0
 11
-18.90199748697971
 21
7.7188772225946281
 31
0.0
  0
LINE
  5
53B8F
  8
0
 62
     0
 10
-18.968288747715949
 20
7.6525859618583887
 30
0.0
 11
-18.968288747715949
 21
7.6525859618583887
 31
0.0
  0
LINE
  5
53B90
  8
0
 62
     0
 10
-19.100871269188399
 20
7.5200034403858993
 30
0.0
 11
-19.100871269188399
 21
7.5200034403858993
 31
0.0
  0
LINE
  5
53B91
  8
0
 62
     0
 10
-19.167162529924639
 20
7.4537121796496599
 30
0.0
 11
-19.167162529924639
 21
7.4537121796496599
 31
0.0
  0
LINE
  5
53B92
  8
0
 62
     0
 10
-19.233453790660882
 20
7.3874209189134223
 30
0.0
 11
-19.233453790660882
 21
7.3874209189134223
 31
0.0
  0
LINE
  5
53B93
  8
0
 62
     0
 10
-19.299745051397121
 20
7.321129658177183
 30
0.0
 11
-19.299745051397121
 21
7.321129658177183
 31
0.0
  0
LINE
  5
53B94
  8
0
 62
     0
 10
-19.36603631213336
 20
7.2548383974409454
 30
0.0
 11
-19.36603631213336
 21
7.2548383974409454
 31
0.0
  0
LINE
  5
53B95
  8
0
 62
     0
 10
-19.4323275728696
 20
7.188547136704706
 30
0.0
 11
-19.4323275728696
 21
7.188547136704706
 31
0.0
  0
LINE
  5
53B96
  8
0
 62
     0
 10
-19.498618833605839
 20
7.1222558759684684
 30
0.0
 11
-19.498618833605839
 21
7.1222558759684684
 31
0.0
  0
LINE
  5
53B97
  8
0
 62
     0
 10
-19.564910094342078
 20
7.0559646152322291
 30
0.0
 11
-19.564910094342078
 21
7.0559646152322291
 31
0.0
  0
LINE
  5
53B98
  8
0
 62
     0
 10
-19.631201355078321
 20
6.9896733544959906
 30
0.0
 11
-19.631201355078321
 21
6.9896733544959906
 31
0.0
  0
LINE
  5
53B99
  8
0
 62
     0
 10
-19.697492615814561
 20
6.9233820937597521
 30
0.0
 11
-19.697492615814561
 21
6.9233820937597521
 31
0.0
  0
LINE
  5
53B9A
  8
0
 62
     0
 10
-19.7637838765508
 20
6.8570908330235136
 30
0.0
 11
-19.7637838765508
 21
6.8570908330235136
 31
0.0
  0
LINE
  5
53B9B
  8
0
 62
     0
 10
-19.830075137287039
 20
6.790799572287276
 30
0.0
 11
-19.830075137287039
 21
6.790799572287276
 31
0.0
  0
LINE
  5
53B9C
  8
0
 62
     0
 10
-19.896366398023279
 20
6.7245083115510367
 30
0.0
 11
-19.896366398023279
 21
6.7245083115510367
 31
0.0
  0
LINE
  5
53B9D
  8
0
 62
     0
 10
-19.962657658759522
 20
6.6582170508147991
 30
0.0
 11
-19.962657658759522
 21
6.6582170508147991
 31
0.0
  0
LINE
  5
53B9E
  8
0
 62
     0
 10
-20.028948919495761
 20
6.5919257900785597
 30
0.0
 11
-20.028948919495761
 21
6.5919257900785597
 31
0.0
  0
LINE
  5
53B9F
  8
0
 62
     0
 10
-20.095240180232
 20
6.5256345293423221
 30
0.0
 11
-20.095240180232
 21
6.5256345293423221
 31
0.0
  0
LINE
  5
53BA0
  8
0
 62
     0
 10
-20.16153144096824
 20
6.4593432686060828
 30
0.0
 11
-20.16153144096824
 21
6.4593432686060828
 31
0.0
  0
LINE
  5
53BA1
  8
0
 62
     0
 10
-20.227822701704479
 20
6.3930520078698452
 30
0.0
 11
-20.227822701704479
 21
6.3930520078698452
 31
0.0
  0
LINE
  5
53BA2
  8
0
 62
     0
 10
-20.294113962440711
 20
6.3267607471336058
 30
0.0
 11
-20.294113962440711
 21
6.3267607471336058
 31
0.0
  0
LINE
  5
53BA3
  8
0
 62
     0
 10
-20.360405223176961
 20
6.2604694863973682
 30
0.0
 11
-20.360405223176961
 21
6.2604694863973682
 31
0.0
  0
LINE
  5
53BA4
  8
0
 62
     0
 10
-20.42669648391319
 20
6.1941782256611289
 30
0.0
 11
-20.42669648391319
 21
6.1941782256611289
 31
0.0
  0
LINE
  5
53BA5
  8
0
 62
     0
 10
-20.49298774464944
 20
6.1278869649248913
 30
0.0
 11
-20.49298774464944
 21
6.1278869649248913
 31
0.0
  0
LINE
  5
53BA6
  8
0
 62
     0
 10
-20.559279005385669
 20
6.0615957041886519
 30
0.0
 11
-20.559279005385669
 21
6.0615957041886519
 31
0.0
  0
LINE
  5
53BA7
  8
0
 62
     0
 10
-20.625570266121908
 20
5.9953044434524143
 30
0.0
 11
-20.625570266121908
 21
5.9953044434524143
 31
0.0
  0
LINE
  5
53BA8
  8
0
 62
     0
 10
-20.691861526858151
 20
5.9290131827161749
 30
0.0
 11
-20.691861526858151
 21
5.9290131827161749
 31
0.0
  0
LINE
  5
53BA9
  8
0
 62
     0
 10
-20.758152787594391
 20
5.8627219219799374
 30
0.0
 11
-20.758152787594391
 21
5.8627219219799374
 31
0.0
  0
LINE
  5
53BAA
  8
0
 62
     0
 10
-20.82444404833063
 20
5.796430661243698
 30
0.0
 11
-20.82444404833063
 21
5.796430661243698
 31
0.0
  0
LINE
  5
53BAB
  8
0
 62
     0
 10
-20.890735309066869
 20
5.7301394005074604
 30
0.0
 11
-20.890735309066869
 21
5.7301394005074604
 31
0.0
  0
LINE
  5
53BAC
  8
0
 62
     0
 10
-20.957026569803109
 20
5.663848139771221
 30
0.0
 11
-20.957026569803109
 21
5.663848139771221
 31
0.0
  0
LINE
  5
53BAD
  8
0
 62
     0
 10
-21.023317830539352
 20
5.5975568790349826
 30
0.0
 11
-21.023317830539352
 21
5.5975568790349826
 31
0.0
  0
LINE
  5
53BAE
  8
0
 62
     0
 10
-21.089609091275591
 20
5.5312656182987441
 30
0.0
 11
-21.089609091275591
 21
5.5312656182987441
 31
0.0
  0
LINE
  5
53BAF
  8
0
 62
     0
 10
-21.15590035201183
 20
5.4649743575625056
 30
0.0
 11
-21.15590035201183
 21
5.4649743575625056
 31
0.0
  0
LINE
  5
53BB0
  8
0
 62
     0
 10
-21.22219161274807
 20
5.398683096826268
 30
0.0
 11
-21.22219161274807
 21
5.398683096826268
 31
0.0
  0
LINE
  5
53BB1
  8
0
 62
     0
 10
-21.288482873484298
 20
5.3323918360900286
 30
0.0
 11
-21.288482873484298
 21
5.3323918360900286
 31
0.0
  0
LINE
  5
53BB2
  8
0
 62
     0
 10
-21.354774134220548
 20
5.2661005753537911
 30
0.0
 11
-21.354774134220548
 21
5.2661005753537911
 31
0.0
  0
LINE
  5
53BB3
  8
0
 62
     0
 10
-21.421065394956781
 20
5.1998093146175517
 30
0.0
 11
-21.421065394956781
 21
5.1998093146175517
 31
0.0
  0
LINE
  5
53BB4
  8
0
 62
     0
 10
-21.487356655693031
 20
5.1335180538813141
 30
0.0
 11
-21.487356655693031
 21
5.1335180538813141
 31
0.0
  0
LINE
  5
53BB5
  8
0
 62
     0
 10
-18.603686813666631
 20
8.1497704173801822
 30
0.0
 11
-18.603686813666631
 21
8.1497704173801822
 31
0.0
  0
LINE
  5
53BB6
  8
0
 62
     0
 10
-18.66997807440287
 20
8.0834791566439428
 30
0.0
 11
-18.66997807440287
 21
8.0834791566439428
 31
0.0
  0
LINE
  5
53BB7
  8
0
 62
     0
 10
-18.736269335139109
 20
8.0171878959077034
 30
0.0
 11
-18.736269335139109
 21
8.0171878959077034
 31
0.0
  0
LINE
  5
53BB8
  8
0
 62
     0
 10
-18.802560595875349
 20
7.9508966351714641
 30
0.0
 11
-18.802560595875349
 21
7.9508966351714641
 31
0.0
  0
LINE
  5
53BB9
  8
0
 62
     0
 10
-18.868851856611581
 20
7.8846053744352247
 30
0.0
 11
-18.868851856611581
 21
7.8846053744352247
 31
0.0
  0
LINE
  5
53BBA
  8
0
 62
     0
 10
-18.935143117347831
 20
7.8183141136989871
 30
0.0
 11
-18.935143117347831
 21
7.8183141136989871
 31
0.0
  0
LINE
  5
53BBB
  8
0
 62
     0
 10
-19.00143437808407
 20
7.7520228529627477
 30
0.0
 11
-19.00143437808407
 21
7.7520228529627477
 31
0.0
  0
LINE
  5
53BBC
  8
0
 62
     0
 10
-19.20030816029276
 20
7.5531490707540216
 30
0.0
 11
-19.20030816029276
 21
7.5531490707540216
 31
0.0
  0
LINE
  5
53BBD
  8
0
 62
     0
 10
-19.266599421028999
 20
7.4868578100177841
 30
0.0
 11
-19.266599421028999
 21
7.4868578100177841
 31
0.0
  0
LINE
  5
53BBE
  8
0
 62
     0
 10
-19.332890681765239
 20
7.4205665492815447
 30
0.0
 11
-19.332890681765239
 21
7.4205665492815447
 31
0.0
  0
LINE
  5
53BBF
  8
0
 62
     0
 10
-19.399181942501482
 20
7.3542752885453071
 30
0.0
 11
-19.399181942501482
 21
7.3542752885453071
 31
0.0
  0
LINE
  5
53BC0
  8
0
 62
     0
 10
-19.465473203237721
 20
7.2879840278090677
 30
0.0
 11
-19.465473203237721
 21
7.2879840278090677
 31
0.0
  0
LINE
  5
53BC1
  8
0
 62
     0
 10
-19.53176446397396
 20
7.2216927670728301
 30
0.0
 11
-19.53176446397396
 21
7.2216927670728301
 31
0.0
  0
LINE
  5
53BC2
  8
0
 62
     0
 10
-19.5980557247102
 20
7.1554015063365908
 30
0.0
 11
-19.5980557247102
 21
7.1554015063365908
 31
0.0
  0
LINE
  5
53BC3
  8
0
 62
     0
 10
-19.664346985446439
 20
7.0891102456003532
 30
0.0
 11
-19.664346985446439
 21
7.0891102456003532
 31
0.0
  0
LINE
  5
53BC4
  8
0
 62
     0
 10
-19.730638246182679
 20
7.0228189848641138
 30
0.0
 11
-19.730638246182679
 21
7.0228189848641138
 31
0.0
  0
LINE
  5
53BC5
  8
0
 62
     0
 10
-19.796929506918922
 20
6.9565277241278762
 30
0.0
 11
-19.796929506918922
 21
6.9565277241278762
 31
0.0
  0
LINE
  5
53BC6
  8
0
 62
     0
 10
-19.863220767655161
 20
6.8902364633916369
 30
0.0
 11
-19.863220767655161
 21
6.8902364633916369
 31
0.0
  0
LINE
  5
53BC7
  8
0
 62
     0
 10
-19.9295120283914
 20
6.8239452026553993
 30
0.0
 11
-19.9295120283914
 21
6.8239452026553993
 31
0.0
  0
LINE
  5
53BC8
  8
0
 62
     0
 10
-19.995803289127629
 20
6.7576539419191599
 30
0.0
 11
-19.995803289127629
 21
6.7576539419191599
 31
0.0
  0
LINE
  5
53BC9
  8
0
 62
     0
 10
-20.062094549863879
 20
6.6913626811829223
 30
0.0
 11
-20.062094549863879
 21
6.6913626811829223
 31
0.0
  0
LINE
  5
53BCA
  8
0
 62
     0
 10
-20.128385810600118
 20
6.625071420446683
 30
0.0
 11
-20.128385810600118
 21
6.625071420446683
 31
0.0
  0
LINE
  5
53BCB
  8
0
 62
     0
 10
-20.194677071336351
 20
6.5587801597104454
 30
0.0
 11
-20.194677071336351
 21
6.5587801597104454
 31
0.0
  0
LINE
  5
53BCC
  8
0
 62
     0
 10
-20.26096833207259
 20
6.492488898974206
 30
0.0
 11
-20.26096833207259
 21
6.492488898974206
 31
0.0
  0
LINE
  5
53BCD
  8
0
 62
     0
 10
-20.327259592808829
 20
6.4261976382379684
 30
0.0
 11
-20.327259592808829
 21
6.4261976382379684
 31
0.0
  0
LINE
  5
53BCE
  8
0
 62
     0
 10
-20.393550853545069
 20
6.359906377501729
 30
0.0
 11
-20.393550853545069
 21
6.359906377501729
 31
0.0
  0
LINE
  5
53BCF
  8
0
 62
     0
 10
-20.459842114281312
 20
6.2936151167654906
 30
0.0
 11
-20.459842114281312
 21
6.2936151167654906
 31
0.0
  0
LINE
  5
53BD0
  8
0
 62
     0
 10
-20.526133375017551
 20
6.2273238560292521
 30
0.0
 11
-20.526133375017551
 21
6.2273238560292521
 31
0.0
  0
LINE
  5
53BD1
  8
0
 62
     0
 10
-20.59242463575379
 20
6.1610325952930136
 30
0.0
 11
-20.59242463575379
 21
6.1610325952930136
 31
0.0
  0
LINE
  5
53BD2
  8
0
 62
     0
 10
-20.65871589649003
 20
6.094741334556776
 30
0.0
 11
-20.65871589649003
 21
6.094741334556776
 31
0.0
  0
LINE
  5
53BD3
  8
0
 62
     0
 10
-20.725007157226269
 20
6.0284500738205367
 30
0.0
 11
-20.725007157226269
 21
6.0284500738205367
 31
0.0
  0
LINE
  5
53BD4
  8
0
 62
     0
 10
-20.791298417962508
 20
5.9621588130842991
 30
0.0
 11
-20.791298417962508
 21
5.9621588130842991
 31
0.0
  0
LINE
  5
53BD5
  8
0
 62
     0
 10
-20.857589678698751
 20
5.8958675523480597
 30
0.0
 11
-20.857589678698751
 21
5.8958675523480597
 31
0.0
  0
LINE
  5
53BD6
  8
0
 62
     0
 10
-20.923880939434991
 20
5.8295762916118221
 30
0.0
 11
-20.923880939434991
 21
5.8295762916118221
 31
0.0
  0
LINE
  5
53BD7
  8
0
 62
     0
 10
-20.99017220017123
 20
5.7632850308755827
 30
0.0
 11
-20.99017220017123
 21
5.7632850308755827
 31
0.0
  0
LINE
  5
53BD8
  8
0
 62
     0
 10
-21.056463460907469
 20
5.6969937701393452
 30
0.0
 11
-21.056463460907469
 21
5.6969937701393452
 31
0.0
  0
LINE
  5
53BD9
  8
0
 62
     0
 10
-21.122754721643709
 20
5.6307025094031058
 30
0.0
 11
-21.122754721643709
 21
5.6307025094031058
 31
0.0
  0
LINE
  5
53BDA
  8
0
 62
     0
 10
-21.189045982379941
 20
5.5644112486668682
 30
0.0
 11
-21.189045982379941
 21
5.5644112486668682
 31
0.0
  0
LINE
  5
53BDB
  8
0
 62
     0
 10
-21.255337243116191
 20
5.4981199879306288
 30
0.0
 11
-21.255337243116191
 21
5.4981199879306288
 31
0.0
  0
LINE
  5
53BDC
  8
0
 62
     0
 10
-21.32162850385242
 20
5.4318287271943912
 30
0.0
 11
-21.32162850385242
 21
5.4318287271943912
 31
0.0
  0
LINE
  5
53BDD
  8
0
 62
     0
 10
-21.387919764588659
 20
5.3655374664581519
 30
0.0
 11
-21.387919764588659
 21
5.3655374664581519
 31
0.0
  0
LINE
  5
53BDE
  8
0
 62
     0
 10
-21.454211025324899
 20
5.2992462057219143
 30
0.0
 11
-21.454211025324899
 21
5.2992462057219143
 31
0.0
  0
LINE
  5
53BDF
  8
0
 62
     0
 10
-21.520502286061141
 20
5.2329549449856749
 30
0.0
 11
-21.520502286061141
 21
5.2329549449856749
 31
0.0
  0
LINE
  5
53BE0
  8
0
 62
     0
 10
-21.586793546797381
 20
5.1666636842494373
 30
0.0
 11
-21.586793546797381
 21
5.1666636842494373
 31
0.0
  0
LINE
  5
53BE1
  8
0
 62
     0
 10
-18.703123704770992
 20
8.1829160477483001
 30
0.0
 11
-18.703123704770992
 21
8.1829160477483001
 31
0.0
  0
LINE
  5
53BE2
  8
0
 62
     0
 10
-18.769414965507231
 20
8.1166247870120607
 30
0.0
 11
-18.769414965507231
 21
8.1166247870120607
 31
0.0
  0
LINE
  5
53BE3
  8
0
 62
     0
 10
-18.83570622624347
 20
8.0503335262758213
 30
0.0
 11
-18.83570622624347
 21
8.0503335262758213
 31
0.0
  0
LINE
  5
53BE4
  8
0
 62
     0
 10
-18.90199748697971
 20
7.984042265539582
 30
0.0
 11
-18.90199748697971
 21
7.984042265539582
 31
0.0
  0
LINE
  5
53BE5
  8
0
 62
     0
 10
-18.968288747715949
 20
7.9177510048033444
 30
0.0
 11
-18.968288747715949
 21
7.9177510048033444
 31
0.0
  0
LINE
  5
53BE6
  8
0
 62
     0
 10
-19.034580008452188
 20
7.851459744067105
 30
0.0
 11
-19.034580008452188
 21
7.851459744067105
 31
0.0
  0
LINE
  5
53BE7
  8
0
 62
     0
 10
-19.100871269188431
 20
7.7851684833308674
 30
0.0
 11
-19.100871269188431
 21
7.7851684833308674
 31
0.0
  0
LINE
  5
53BE8
  8
0
 62
     0
 10
-19.233453790660882
 20
7.6525859618583771
 30
0.0
 11
-19.233453790660882
 21
7.6525859618583771
 31
0.0
  0
LINE
  5
53BE9
  8
0
 62
     0
 10
-19.299745051397121
 20
7.5862947011221378
 30
0.0
 11
-19.299745051397121
 21
7.5862947011221378
 31
0.0
  0
LINE
  5
53BEA
  8
0
 62
     0
 10
-19.36603631213336
 20
7.5200034403859002
 30
0.0
 11
-19.36603631213336
 21
7.5200034403859002
 31
0.0
  0
LINE
  5
53BEB
  8
0
 62
     0
 10
-19.4323275728696
 20
7.4537121796496608
 30
0.0
 11
-19.4323275728696
 21
7.4537121796496608
 31
0.0
  0
LINE
  5
53BEC
  8
0
 62
     0
 10
-19.498618833605839
 20
7.3874209189134232
 30
0.0
 11
-19.498618833605839
 21
7.3874209189134232
 31
0.0
  0
LINE
  5
53BED
  8
0
 62
     0
 10
-19.564910094342078
 20
7.3211296581771839
 30
0.0
 11
-19.564910094342078
 21
7.3211296581771839
 31
0.0
  0
LINE
  5
53BEE
  8
0
 62
     0
 10
-19.631201355078321
 20
7.2548383974409463
 30
0.0
 11
-19.631201355078321
 21
7.2548383974409463
 31
0.0
  0
LINE
  5
53BEF
  8
0
 62
     0
 10
-19.697492615814561
 20
7.1885471367047069
 30
0.0
 11
-19.697492615814561
 21
7.1885471367047069
 31
0.0
  0
LINE
  5
53BF0
  8
0
 62
     0
 10
-19.7637838765508
 20
7.1222558759684693
 30
0.0
 11
-19.7637838765508
 21
7.1222558759684693
 31
0.0
  0
LINE
  5
53BF1
  8
0
 62
     0
 10
-19.830075137287039
 20
7.05596461523223
 30
0.0
 11
-19.830075137287039
 21
7.05596461523223
 31
0.0
  0
LINE
  5
53BF2
  8
0
 62
     0
 10
-19.896366398023279
 20
6.9896733544959924
 30
0.0
 11
-19.896366398023279
 21
6.9896733544959924
 31
0.0
  0
LINE
  5
53BF3
  8
0
 62
     0
 10
-19.962657658759522
 20
6.923382093759753
 30
0.0
 11
-19.962657658759522
 21
6.923382093759753
 31
0.0
  0
LINE
  5
53BF4
  8
0
 62
     0
 10
-20.028948919495761
 20
6.8570908330235154
 30
0.0
 11
-20.028948919495761
 21
6.8570908330235154
 31
0.0
  0
LINE
  5
53BF5
  8
0
 62
     0
 10
-20.095240180232
 20
6.790799572287276
 30
0.0
 11
-20.095240180232
 21
6.790799572287276
 31
0.0
  0
LINE
  5
53BF6
  8
0
 62
     0
 10
-20.16153144096824
 20
6.7245083115510376
 30
0.0
 11
-20.16153144096824
 21
6.7245083115510376
 31
0.0
  0
LINE
  5
53BF7
  8
0
 62
     0
 10
-20.227822701704479
 20
6.6582170508147991
 30
0.0
 11
-20.227822701704479
 21
6.6582170508147991
 31
0.0
  0
LINE
  5
53BF8
  8
0
 62
     0
 10
-20.294113962440711
 20
6.5919257900785606
 30
0.0
 11
-20.294113962440711
 21
6.5919257900785606
 31
0.0
  0
LINE
  5
53BF9
  8
0
 62
     0
 10
-20.360405223176961
 20
6.525634529342323
 30
0.0
 11
-20.360405223176961
 21
6.525634529342323
 31
0.0
  0
LINE
  5
53BFA
  8
0
 62
     0
 10
-20.42669648391319
 20
6.4593432686060837
 30
0.0
 11
-20.42669648391319
 21
6.4593432686060837
 31
0.0
  0
LINE
  5
53BFB
  8
0
 62
     0
 10
-20.49298774464944
 20
6.3930520078698461
 30
0.0
 11
-20.49298774464944
 21
6.3930520078698461
 31
0.0
  0
LINE
  5
53BFC
  8
0
 62
     0
 10
-20.559279005385669
 20
6.3267607471336067
 30
0.0
 11
-20.559279005385669
 21
6.3267607471336067
 31
0.0
  0
LINE
  5
53BFD
  8
0
 62
     0
 10
-20.625570266121908
 20
6.2604694863973691
 30
0.0
 11
-20.625570266121908
 21
6.2604694863973691
 31
0.0
  0
LINE
  5
53BFE
  8
0
 62
     0
 10
-20.691861526858151
 20
6.1941782256611297
 30
0.0
 11
-20.691861526858151
 21
6.1941782256611297
 31
0.0
  0
LINE
  5
53BFF
  8
0
 62
     0
 10
-20.758152787594391
 20
6.1278869649248922
 30
0.0
 11
-20.758152787594391
 21
6.1278869649248922
 31
0.0
  0
LINE
  5
53C00
  8
0
 62
     0
 10
-20.82444404833063
 20
6.0615957041886528
 30
0.0
 11
-20.82444404833063
 21
6.0615957041886528
 31
0.0
  0
LINE
  5
53C01
  8
0
 62
     0
 10
-20.890735309066869
 20
5.9953044434524152
 30
0.0
 11
-20.890735309066869
 21
5.9953044434524152
 31
0.0
  0
LINE
  5
53C02
  8
0
 62
     0
 10
-20.957026569803109
 20
5.9290131827161758
 30
0.0
 11
-20.957026569803109
 21
5.9290131827161758
 31
0.0
  0
LINE
  5
53C03
  8
0
 62
     0
 10
-21.023317830539352
 20
5.8627219219799382
 30
0.0
 11
-21.023317830539352
 21
5.8627219219799382
 31
0.0
  0
LINE
  5
53C04
  8
0
 62
     0
 10
-21.089609091275591
 20
5.7964306612436989
 30
0.0
 11
-21.089609091275591
 21
5.7964306612436989
 31
0.0
  0
LINE
  5
53C05
  8
0
 62
     0
 10
-21.15590035201183
 20
5.7301394005074613
 30
0.0
 11
-21.15590035201183
 21
5.7301394005074613
 31
0.0
  0
LINE
  5
53C06
  8
0
 62
     0
 10
-21.22219161274807
 20
5.6638481397712219
 30
0.0
 11
-21.22219161274807
 21
5.6638481397712219
 31
0.0
  0
LINE
  5
53C07
  8
0
 62
     0
 10
-21.288482873484298
 20
5.5975568790349843
 30
0.0
 11
-21.288482873484298
 21
5.5975568790349843
 31
0.0
  0
LINE
  5
53C08
  8
0
 62
     0
 10
-21.354774134220548
 20
5.531265618298745
 30
0.0
 11
-21.354774134220548
 21
5.531265618298745
 31
0.0
  0
LINE
  5
53C09
  8
0
 62
     0
 10
-21.421065394956781
 20
5.4649743575625074
 30
0.0
 11
-21.421065394956781
 21
5.4649743575625074
 31
0.0
  0
LINE
  5
53C0A
  8
0
 62
     0
 10
-21.487356655693031
 20
5.398683096826268
 30
0.0
 11
-21.487356655693031
 21
5.398683096826268
 31
0.0
  0
LINE
  5
53C0B
  8
0
 62
     0
 10
-21.553647916429259
 20
5.3323918360900304
 30
0.0
 11
-21.553647916429259
 21
5.3323918360900304
 31
0.0
  0
LINE
  5
53C0C
  8
0
 62
     0
 10
-21.619939177165499
 20
5.2661005753537911
 30
0.0
 11
-21.619939177165499
 21
5.2661005753537911
 31
0.0
  0
LINE
  5
53C0D
  8
0
 62
     0
 10
-18.802560595875349
 20
8.2160616781164197
 30
0.0
 11
-18.802560595875349
 21
8.2160616781164197
 31
0.0
  0
LINE
  5
53C0E
  8
0
 62
     0
 10
-18.868851856611581
 20
8.1497704173801804
 30
0.0
 11
-18.868851856611581
 21
8.1497704173801804
 31
0.0
  0
LINE
  5
53C0F
  8
0
 62
     0
 10
-18.935143117347831
 20
8.083479156643941
 30
0.0
 11
-18.935143117347831
 21
8.083479156643941
 31
0.0
  0
LINE
  5
53C10
  8
0
 62
     0
 10
-19.00143437808407
 20
8.0171878959077016
 30
0.0
 11
-19.00143437808407
 21
8.0171878959077016
 31
0.0
  0
LINE
  5
53C11
  8
0
 62
     0
 10
-19.067725638820299
 20
7.9508966351714632
 30
0.0
 11
-19.067725638820299
 21
7.9508966351714632
 31
0.0
  0
LINE
  5
53C12
  8
0
 62
     0
 10
-19.134016899556539
 20
7.8846053744352238
 30
0.0
 11
-19.134016899556539
 21
7.8846053744352238
 31
0.0
  0
LINE
  5
53C13
  8
0
 62
     0
 10
-19.200308160292781
 20
7.8183141136989862
 30
0.0
 11
-19.200308160292781
 21
7.8183141136989862
 31
0.0
  0
LINE
  5
53C14
  8
0
 62
     0
 10
-19.332890681765239
 20
7.685731592226495
 30
0.0
 11
-19.332890681765239
 21
7.685731592226495
 31
0.0
  0
LINE
  5
53C15
  8
0
 62
     0
 10
-19.399181942501482
 20
7.6194403314902557
 30
0.0
 11
-19.399181942501482
 21
7.6194403314902557
 31
0.0
  0
LINE
  5
53C16
  8
0
 62
     0
 10
-19.465473203237721
 20
7.5531490707540181
 30
0.0
 11
-19.465473203237721
 21
7.5531490707540181
 31
0.0
  0
LINE
  5
53C17
  8
0
 62
     0
 10
-19.53176446397396
 20
7.4868578100177787
 30
0.0
 11
-19.53176446397396
 21
7.4868578100177787
 31
0.0
  0
LINE
  5
53C18
  8
0
 62
     0
 10
-19.5980557247102
 20
7.4205665492815411
 30
0.0
 11
-19.5980557247102
 21
7.4205665492815411
 31
0.0
  0
LINE
  5
53C19
  8
0
 62
     0
 10
-19.664346985446439
 20
7.3542752885453018
 30
0.0
 11
-19.664346985446439
 21
7.3542752885453018
 31
0.0
  0
LINE
  5
53C1A
  8
0
 62
     0
 10
-19.730638246182679
 20
7.2879840278090642
 30
0.0
 11
-19.730638246182679
 21
7.2879840278090642
 31
0.0
  0
LINE
  5
53C1B
  8
0
 62
     0
 10
-19.796929506918922
 20
7.2216927670728248
 30
0.0
 11
-19.796929506918922
 21
7.2216927670728248
 31
0.0
  0
LINE
  5
53C1C
  8
0
 62
     0
 10
-19.863220767655161
 20
7.1554015063365872
 30
0.0
 11
-19.863220767655161
 21
7.1554015063365872
 31
0.0
  0
LINE
  5
53C1D
  8
0
 62
     0
 10
-19.9295120283914
 20
7.0891102456003479
 30
0.0
 11
-19.9295120283914
 21
7.0891102456003479
 31
0.0
  0
LINE
  5
53C1E
  8
0
 62
     0
 10
-19.995803289127629
 20
7.0228189848641103
 30
0.0
 11
-19.995803289127629
 21
7.0228189848641103
 31
0.0
  0
LINE
  5
53C1F
  8
0
 62
     0
 10
-20.062094549863879
 20
6.9565277241278709
 30
0.0
 11
-20.062094549863879
 21
6.9565277241278709
 31
0.0
  0
LINE
  5
53C20
  8
0
 62
     0
 10
-20.128385810600118
 20
6.8902364633916333
 30
0.0
 11
-20.128385810600118
 21
6.8902364633916333
 31
0.0
  0
LINE
  5
53C21
  8
0
 62
     0
 10
-20.194677071336351
 20
6.8239452026553939
 30
0.0
 11
-20.194677071336351
 21
6.8239452026553939
 31
0.0
  0
LINE
  5
53C22
  8
0
 62
     0
 10
-20.26096833207259
 20
6.7576539419191564
 30
0.0
 11
-20.26096833207259
 21
6.7576539419191564
 31
0.0
  0
LINE
  5
53C23
  8
0
 62
     0
 10
-20.327259592808829
 20
6.691362681182917
 30
0.0
 11
-20.327259592808829
 21
6.691362681182917
 31
0.0
  0
LINE
  5
53C24
  8
0
 62
     0
 10
-20.393550853545069
 20
6.6250714204466794
 30
0.0
 11
-20.393550853545069
 21
6.6250714204466794
 31
0.0
  0
LINE
  5
53C25
  8
0
 62
     0
 10
-20.459842114281312
 20
6.55878015971044
 30
0.0
 11
-20.459842114281312
 21
6.55878015971044
 31
0.0
  0
LINE
  5
53C26
  8
0
 62
     0
 10
-20.526133375017551
 20
6.4924888989742016
 30
0.0
 11
-20.526133375017551
 21
6.4924888989742016
 31
0.0
  0
LINE
  5
53C27
  8
0
 62
     0
 10
-20.59242463575379
 20
6.4261976382379631
 30
0.0
 11
-20.59242463575379
 21
6.4261976382379631
 31
0.0
  0
LINE
  5
53C28
  8
0
 62
     0
 10
-20.65871589649003
 20
6.3599063775017246
 30
0.0
 11
-20.65871589649003
 21
6.3599063775017246
 31
0.0
  0
LINE
  5
53C29
  8
0
 62
     0
 10
-20.725007157226269
 20
6.293615116765487
 30
0.0
 11
-20.725007157226269
 21
6.293615116765487
 31
0.0
  0
LINE
  5
53C2A
  8
0
 62
     0
 10
-20.791298417962508
 20
6.2273238560292477
 30
0.0
 11
-20.791298417962508
 21
6.2273238560292477
 31
0.0
  0
LINE
  5
53C2B
  8
0
 62
     0
 10
-20.857589678698751
 20
6.1610325952930101
 30
0.0
 11
-20.857589678698751
 21
6.1610325952930101
 31
0.0
  0
LINE
  5
53C2C
  8
0
 62
     0
 10
-20.923880939434991
 20
6.0947413345567707
 30
0.0
 11
-20.923880939434991
 21
6.0947413345567707
 31
0.0
  0
LINE
  5
53C2D
  8
0
 62
     0
 10
-20.99017220017123
 20
6.0284500738205331
 30
0.0
 11
-20.99017220017123
 21
6.0284500738205331
 31
0.0
  0
LINE
  5
53C2E
  8
0
 62
     0
 10
-21.056463460907469
 20
5.9621588130842937
 30
0.0
 11
-21.056463460907469
 21
5.9621588130842937
 31
0.0
  0
LINE
  5
53C2F
  8
0
 62
     0
 10
-21.122754721643709
 20
5.8958675523480562
 30
0.0
 11
-21.122754721643709
 21
5.8958675523480562
 31
0.0
  0
LINE
  5
53C30
  8
0
 62
     0
 10
-21.189045982379941
 20
5.8295762916118168
 30
0.0
 11
-21.189045982379941
 21
5.8295762916118168
 31
0.0
  0
LINE
  5
53C31
  8
0
 62
     0
 10
-21.255337243116191
 20
5.7632850308755792
 30
0.0
 11
-21.255337243116191
 21
5.7632850308755792
 31
0.0
  0
LINE
  5
53C32
  8
0
 62
     0
 10
-21.32162850385242
 20
5.6969937701393398
 30
0.0
 11
-21.32162850385242
 21
5.6969937701393398
 31
0.0
  0
LINE
  5
53C33
  8
0
 62
     0
 10
-21.387919764588659
 20
5.6307025094031022
 30
0.0
 11
-21.387919764588659
 21
5.6307025094031022
 31
0.0
  0
LINE
  5
53C34
  8
0
 62
     0
 10
-21.454211025324899
 20
5.5644112486668629
 30
0.0
 11
-21.454211025324899
 21
5.5644112486668629
 31
0.0
  0
LINE
  5
53C35
  8
0
 62
     0
 10
-21.520502286061141
 20
5.4981199879306253
 30
0.0
 11
-21.520502286061141
 21
5.4981199879306253
 31
0.0
  0
LINE
  5
53C36
  8
0
 62
     0
 10
-21.586793546797381
 20
5.4318287271943859
 30
0.0
 11
-21.586793546797381
 21
5.4318287271943859
 31
0.0
  0
LINE
  5
53C37
  8
0
 62
     0
 10
-21.65308480753362
 20
5.3655374664581483
 30
0.0
 11
-21.65308480753362
 21
5.3655374664581483
 31
0.0
  0
LINE
  5
53C38
  8
0
 62
     0
 10
-18.83570622624347
 20
8.3154985692207806
 30
0.0
 11
-18.83570622624347
 21
8.3154985692207806
 31
0.0
  0
LINE
  5
53C39
  8
0
 62
     0
 10
-18.901997486979699
 20
8.2492073084845412
 30
0.0
 11
-18.901997486979699
 21
8.2492073084845412
 31
0.0
  0
LINE
  5
53C3A
  8
0
 62
     0
 10
-18.968288747715938
 20
8.1829160477483018
 30
0.0
 11
-18.968288747715938
 21
8.1829160477483018
 31
0.0
  0
LINE
  5
53C3B
  8
0
 62
     0
 10
-19.034580008452181
 20
8.1166247870120625
 30
0.0
 11
-19.034580008452181
 21
8.1166247870120625
 31
0.0
  0
LINE
  5
53C3C
  8
0
 62
     0
 10
-19.100871269188421
 20
8.0503335262758231
 30
0.0
 11
-19.100871269188421
 21
8.0503335262758231
 31
0.0
  0
LINE
  5
53C3D
  8
0
 62
     0
 10
-19.16716252992466
 20
7.9840422655395837
 30
0.0
 11
-19.16716252992466
 21
7.9840422655395837
 31
0.0
  0
LINE
  5
53C3E
  8
0
 62
     0
 10
-19.233453790660899
 20
7.9177510048033461
 30
0.0
 11
-19.233453790660899
 21
7.9177510048033461
 31
0.0
  0
LINE
  5
53C3F
  8
0
 62
     0
 10
-19.299745051397139
 20
7.8514597440671068
 30
0.0
 11
-19.299745051397139
 21
7.8514597440671068
 31
0.0
  0
LINE
  5
53C40
  8
0
 62
     0
 10
-19.4323275728696
 20
7.7188772225946201
 30
0.0
 11
-19.4323275728696
 21
7.7188772225946201
 31
0.0
  0
LINE
  5
53C41
  8
0
 62
     0
 10
-19.498618833605839
 20
7.6525859618583807
 30
0.0
 11
-19.498618833605839
 21
7.6525859618583807
 31
0.0
  0
LINE
  5
53C42
  8
0
 62
     0
 10
-19.564910094342078
 20
7.5862947011221431
 30
0.0
 11
-19.564910094342078
 21
7.5862947011221431
 31
0.0
  0
LINE
  5
53C43
  8
0
 62
     0
 10
-19.631201355078321
 20
7.5200034403859037
 30
0.0
 11
-19.631201355078321
 21
7.5200034403859037
 31
0.0
  0
LINE
  5
53C44
  8
0
 62
     0
 10
-19.697492615814561
 20
7.4537121796496661
 30
0.0
 11
-19.697492615814561
 21
7.4537121796496661
 31
0.0
  0
LINE
  5
53C45
  8
0
 62
     0
 10
-19.7637838765508
 20
7.3874209189134268
 30
0.0
 11
-19.7637838765508
 21
7.3874209189134268
 31
0.0
  0
LINE
  5
53C46
  8
0
 62
     0
 10
-19.830075137287029
 20
7.3211296581771892
 30
0.0
 11
-19.830075137287029
 21
7.3211296581771892
 31
0.0
  0
LINE
  5
53C47
  8
0
 62
     0
 10
-19.896366398023272
 20
7.2548383974409498
 30
0.0
 11
-19.896366398023272
 21
7.2548383974409498
 31
0.0
  0
LINE
  5
53C48
  8
0
 62
     0
 10
-19.962657658759511
 20
7.1885471367047122
 30
0.0
 11
-19.962657658759511
 21
7.1885471367047122
 31
0.0
  0
LINE
  5
53C49
  8
0
 62
     0
 10
-20.02894891949575
 20
7.1222558759684729
 30
0.0
 11
-20.02894891949575
 21
7.1222558759684729
 31
0.0
  0
LINE
  5
53C4A
  8
0
 62
     0
 10
-20.09524018023199
 20
7.0559646152322353
 30
0.0
 11
-20.09524018023199
 21
7.0559646152322353
 31
0.0
  0
LINE
  5
53C4B
  8
0
 62
     0
 10
-20.161531440968229
 20
6.9896733544959959
 30
0.0
 11
-20.161531440968229
 21
6.9896733544959959
 31
0.0
  0
LINE
  5
53C4C
  8
0
 62
     0
 10
-20.227822701704468
 20
6.9233820937597583
 30
0.0
 11
-20.227822701704468
 21
6.9233820937597583
 31
0.0
  0
LINE
  5
53C4D
  8
0
 62
     0
 10
-20.294113962440711
 20
6.857090833023519
 30
0.0
 11
-20.294113962440711
 21
6.857090833023519
 31
0.0
  0
LINE
  5
53C4E
  8
0
 62
     0
 10
-20.360405223176951
 20
6.7907995722872814
 30
0.0
 11
-20.360405223176951
 21
6.7907995722872814
 31
0.0
  0
LINE
  5
53C4F
  8
0
 62
     0
 10
-20.42669648391319
 20
6.724508311551042
 30
0.0
 11
-20.42669648391319
 21
6.724508311551042
 31
0.0
  0
LINE
  5
53C50
  8
0
 62
     0
 10
-20.49298774464943
 20
6.6582170508148044
 30
0.0
 11
-20.49298774464943
 21
6.6582170508148044
 31
0.0
  0
LINE
  5
53C51
  8
0
 62
     0
 10
-20.559279005385669
 20
6.5919257900785651
 30
0.0
 11
-20.559279005385669
 21
6.5919257900785651
 31
0.0
  0
LINE
  5
53C52
  8
0
 62
     0
 10
-20.625570266121908
 20
6.5256345293423266
 30
0.0
 11
-20.625570266121908
 21
6.5256345293423266
 31
0.0
  0
LINE
  5
53C53
  8
0
 62
     0
 10
-20.691861526858151
 20
6.4593432686060881
 30
0.0
 11
-20.691861526858151
 21
6.4593432686060881
 31
0.0
  0
LINE
  5
53C54
  8
0
 62
     0
 10
-20.758152787594391
 20
6.3930520078698496
 30
0.0
 11
-20.758152787594391
 21
6.3930520078698496
 31
0.0
  0
LINE
  5
53C55
  8
0
 62
     0
 10
-20.82444404833063
 20
6.326760747133612
 30
0.0
 11
-20.82444404833063
 21
6.326760747133612
 31
0.0
  0
LINE
  5
53C56
  8
0
 62
     0
 10
-20.890735309066869
 20
6.2604694863973727
 30
0.0
 11
-20.890735309066869
 21
6.2604694863973727
 31
0.0
  0
LINE
  5
53C57
  8
0
 62
     0
 10
-20.957026569803109
 20
6.1941782256611351
 30
0.0
 11
-20.957026569803109
 21
6.1941782256611351
 31
0.0
  0
LINE
  5
53C58
  8
0
 62
     0
 10
-21.023317830539341
 20
6.1278869649248957
 30
0.0
 11
-21.023317830539341
 21
6.1278869649248957
 31
0.0
  0
LINE
  5
53C59
  8
0
 62
     0
 10
-21.08960909127558
 20
6.0615957041886581
 30
0.0
 11
-21.08960909127558
 21
6.0615957041886581
 31
0.0
  0
LINE
  5
53C5A
  8
0
 62
     0
 10
-21.15590035201182
 20
5.9953044434524188
 30
0.0
 11
-21.15590035201182
 21
5.9953044434524188
 31
0.0
  0
LINE
  5
53C5B
  8
0
 62
     0
 10
-21.222191612748059
 20
5.9290131827161812
 30
0.0
 11
-21.222191612748059
 21
5.9290131827161812
 31
0.0
  0
LINE
  5
53C5C
  8
0
 62
     0
 10
-21.288482873484298
 20
5.8627219219799418
 30
0.0
 11
-21.288482873484298
 21
5.8627219219799418
 31
0.0
  0
LINE
  5
53C5D
  8
0
 62
     0
 10
-21.354774134220541
 20
5.7964306612437042
 30
0.0
 11
-21.354774134220541
 21
5.7964306612437042
 31
0.0
  0
LINE
  5
53C5E
  8
0
 62
     0
 10
-21.421065394956781
 20
5.7301394005074648
 30
0.0
 11
-21.421065394956781
 21
5.7301394005074648
 31
0.0
  0
LINE
  5
53C5F
  8
0
 62
     0
 10
-21.48735665569302
 20
5.6638481397712273
 30
0.0
 11
-21.48735665569302
 21
5.6638481397712273
 31
0.0
  0
LINE
  5
53C60
  8
0
 62
     0
 10
-21.553647916429259
 20
5.5975568790349879
 30
0.0
 11
-21.553647916429259
 21
5.5975568790349879
 31
0.0
  0
LINE
  5
53C61
  8
0
 62
     0
 10
-21.619939177165499
 20
5.5312656182987503
 30
0.0
 11
-21.619939177165499
 21
5.5312656182987503
 31
0.0
  0
LINE
  5
53C62
  8
0
 62
     0
 10
-21.686230437901742
 20
5.4649743575625109
 30
0.0
 11
-21.686230437901742
 21
5.4649743575625109
 31
0.0
  0
LINE
  5
53C63
  8
0
 62
     0
 10
-18.935143117347831
 20
8.3486441995889002
 30
0.0
 11
-18.935143117347831
 21
8.3486441995889002
 31
0.0
  0
LINE
  5
53C64
  8
0
 62
     0
 10
-19.00143437808407
 20
8.2823529388526609
 30
0.0
 11
-19.00143437808407
 21
8.2823529388526609
 31
0.0
  0
LINE
  5
53C65
  8
0
 62
     0
 10
-19.067725638820299
 20
8.2160616781164215
 30
0.0
 11
-19.067725638820299
 21
8.2160616781164215
 31
0.0
  0
LINE
  5
53C66
  8
0
 62
     0
 10
-19.134016899556539
 20
8.1497704173801822
 30
0.0
 11
-19.134016899556539
 21
8.1497704173801822
 31
0.0
  0
LINE
  5
53C67
  8
0
 62
     0
 10
-19.200308160292781
 20
8.0834791566439428
 30
0.0
 11
-19.200308160292781
 21
8.0834791566439428
 31
0.0
  0
LINE
  5
53C68
  8
0
 62
     0
 10
-19.266599421029021
 20
8.0171878959077034
 30
0.0
 11
-19.266599421029021
 21
8.0171878959077034
 31
0.0
  0
LINE
  5
53C69
  8
0
 62
     0
 10
-19.33289068176526
 20
7.9508966351714641
 30
0.0
 11
-19.33289068176526
 21
7.9508966351714641
 31
0.0
  0
LINE
  5
53C6A
  8
0
 62
     0
 10
-19.53176446397396
 20
7.7520228529627371
 30
0.0
 11
-19.53176446397396
 21
7.7520228529627371
 31
0.0
  0
LINE
  5
53C6B
  8
0
 62
     0
 10
-19.5980557247102
 20
7.6857315922264977
 30
0.0
 11
-19.5980557247102
 21
7.6857315922264977
 31
0.0
  0
LINE
  5
53C6C
  8
0
 62
     0
 10
-19.664346985446439
 20
7.6194403314902601
 30
0.0
 11
-19.664346985446439
 21
7.6194403314902601
 31
0.0
  0
LINE
  5
53C6D
  8
0
 62
     0
 10
-19.730638246182679
 20
7.5531490707540208
 30
0.0
 11
-19.730638246182679
 21
7.5531490707540208
 31
0.0
  0
LINE
  5
53C6E
  8
0
 62
     0
 10
-19.796929506918922
 20
7.4868578100177832
 30
0.0
 11
-19.796929506918922
 21
7.4868578100177832
 31
0.0
  0
LINE
  5
53C6F
  8
0
 62
     0
 10
-19.863220767655161
 20
7.4205665492815438
 30
0.0
 11
-19.863220767655161
 21
7.4205665492815438
 31
0.0
  0
LINE
  5
53C70
  8
0
 62
     0
 10
-19.9295120283914
 20
7.3542752885453062
 30
0.0
 11
-19.9295120283914
 21
7.3542752885453062
 31
0.0
  0
LINE
  5
53C71
  8
0
 62
     0
 10
-19.99580328912764
 20
7.2879840278090668
 30
0.0
 11
-19.99580328912764
 21
7.2879840278090668
 31
0.0
  0
LINE
  5
53C72
  8
0
 62
     0
 10
-20.062094549863879
 20
7.2216927670728293
 30
0.0
 11
-20.062094549863879
 21
7.2216927670728293
 31
0.0
  0
LINE
  5
53C73
  8
0
 62
     0
 10
-20.128385810600118
 20
7.1554015063365899
 30
0.0
 11
-20.128385810600118
 21
7.1554015063365899
 31
0.0
  0
LINE
  5
53C74
  8
0
 62
     0
 10
-20.194677071336361
 20
7.0891102456003523
 30
0.0
 11
-20.194677071336361
 21
7.0891102456003523
 31
0.0
  0
LINE
  5
53C75
  8
0
 62
     0
 10
-20.260968332072601
 20
7.0228189848641129
 30
0.0
 11
-20.260968332072601
 21
7.0228189848641129
 31
0.0
  0
LINE
  5
53C76
  8
0
 62
     0
 10
-20.32725959280884
 20
6.9565277241278753
 30
0.0
 11
-20.32725959280884
 21
6.9565277241278753
 31
0.0
  0
LINE
  5
53C77
  8
0
 62
     0
 10
-20.393550853545069
 20
6.890236463391636
 30
0.0
 11
-20.393550853545069
 21
6.890236463391636
 31
0.0
  0
LINE
  5
53C78
  8
0
 62
     0
 10
-20.459842114281319
 20
6.8239452026553984
 30
0.0
 11
-20.459842114281319
 21
6.8239452026553984
 31
0.0
  0
LINE
  5
53C79
  8
0
 62
     0
 10
-20.526133375017551
 20
6.757653941919159
 30
0.0
 11
-20.526133375017551
 21
6.757653941919159
 31
0.0
  0
LINE
  5
53C7A
  8
0
 62
     0
 10
-20.592424635753801
 20
6.6913626811829214
 30
0.0
 11
-20.592424635753801
 21
6.6913626811829214
 31
0.0
  0
LINE
  5
53C7B
  8
0
 62
     0
 10
-20.65871589649003
 20
6.6250714204466821
 30
0.0
 11
-20.65871589649003
 21
6.6250714204466821
 31
0.0
  0
LINE
  5
53C7C
  8
0
 62
     0
 10
-20.725007157226269
 20
6.5587801597104436
 30
0.0
 11
-20.725007157226269
 21
6.5587801597104436
 31
0.0
  0
LINE
  5
53C7D
  8
0
 62
     0
 10
-20.791298417962508
 20
6.492488898974206
 30
0.0
 11
-20.791298417962508
 21
6.492488898974206
 31
0.0
  0
LINE
  5
53C7E
  8
0
 62
     0
 10
-20.857589678698751
 20
6.4261976382379666
 30
0.0
 11
-20.857589678698751
 21
6.4261976382379666
 31
0.0
  0
LINE
  5
53C7F
  8
0
 62
     0
 10
-20.923880939434991
 20
6.359906377501729
 30
0.0
 11
-20.923880939434991
 21
6.359906377501729
 31
0.0
  0
LINE
  5
53C80
  8
0
 62
     0
 10
-20.99017220017123
 20
6.2936151167654897
 30
0.0
 11
-20.99017220017123
 21
6.2936151167654897
 31
0.0
  0
LINE
  5
53C81
  8
0
 62
     0
 10
-21.056463460907469
 20
6.2273238560292521
 30
0.0
 11
-21.056463460907469
 21
6.2273238560292521
 31
0.0
  0
LINE
  5
53C82
  8
0
 62
     0
 10
-21.122754721643709
 20
6.1610325952930127
 30
0.0
 11
-21.122754721643709
 21
6.1610325952930127
 31
0.0
  0
LINE
  5
53C83
  8
0
 62
     0
 10
-21.189045982379952
 20
6.0947413345567751
 30
0.0
 11
-21.189045982379952
 21
6.0947413345567751
 31
0.0
  0
LINE
  5
53C84
  8
0
 62
     0
 10
-21.255337243116191
 20
6.0284500738205358
 30
0.0
 11
-21.255337243116191
 21
6.0284500738205358
 31
0.0
  0
LINE
  5
53C85
  8
0
 62
     0
 10
-21.32162850385243
 20
5.9621588130842982
 30
0.0
 11
-21.32162850385243
 21
5.9621588130842982
 31
0.0
  0
LINE
  5
53C86
  8
0
 62
     0
 10
-21.387919764588659
 20
5.8958675523480588
 30
0.0
 11
-21.387919764588659
 21
5.8958675523480588
 31
0.0
  0
LINE
  5
53C87
  8
0
 62
     0
 10
-21.454211025324909
 20
5.8295762916118212
 30
0.0
 11
-21.454211025324909
 21
5.8295762916118212
 31
0.0
  0
LINE
  5
53C88
  8
0
 62
     0
 10
-21.520502286061141
 20
5.7632850308755819
 30
0.0
 11
-21.520502286061141
 21
5.7632850308755819
 31
0.0
  0
LINE
  5
53C89
  8
0
 62
     0
 10
-21.586793546797391
 20
5.6969937701393443
 30
0.0
 11
-21.586793546797391
 21
5.6969937701393443
 31
0.0
  0
LINE
  5
53C8A
  8
0
 62
     0
 10
-21.65308480753362
 20
5.6307025094031049
 30
0.0
 11
-21.65308480753362
 21
5.6307025094031049
 31
0.0
  0
LINE
  5
53C8B
  8
0
 62
     0
 10
-19.034580008452181
 20
8.3817898299570182
 30
0.0
 11
-19.034580008452181
 21
8.3817898299570182
 31
0.0
  0
LINE
  5
53C8C
  8
0
 62
     0
 10
-19.100871269188421
 20
8.3154985692207806
 30
0.0
 11
-19.100871269188421
 21
8.3154985692207806
 31
0.0
  0
LINE
  5
53C8D
  8
0
 62
     0
 10
-19.16716252992466
 20
8.2492073084845412
 30
0.0
 11
-19.16716252992466
 21
8.2492073084845412
 31
0.0
  0
LINE
  5
53C8E
  8
0
 62
     0
 10
-19.233453790660899
 20
8.1829160477483018
 30
0.0
 11
-19.233453790660899
 21
8.1829160477483018
 31
0.0
  0
LINE
  5
53C8F
  8
0
 62
     0
 10
-19.299745051397139
 20
8.1166247870120625
 30
0.0
 11
-19.299745051397139
 21
8.1166247870120625
 31
0.0
  0
LINE
  5
53C90
  8
0
 62
     0
 10
-19.366036312133382
 20
8.0503335262758231
 30
0.0
 11
-19.366036312133382
 21
8.0503335262758231
 31
0.0
  0
LINE
  5
53C91
  8
0
 62
     0
 10
-19.432327572869621
 20
7.9840422655395828
 30
0.0
 11
-19.432327572869621
 21
7.9840422655395828
 31
0.0
  0
LINE
  5
53C92
  8
0
 62
     0
 10
-19.564910094342078
 20
7.8514597440670917
 30
0.0
 11
-19.564910094342078
 21
7.8514597440670917
 31
0.0
  0
LINE
  5
53C93
  8
0
 62
     0
 10
-19.631201355078321
 20
7.7851684833308541
 30
0.0
 11
-19.631201355078321
 21
7.7851684833308541
 31
0.0
  0
LINE
  5
53C94
  8
0
 62
     0
 10
-19.697492615814561
 20
7.7188772225946147
 30
0.0
 11
-19.697492615814561
 21
7.7188772225946147
 31
0.0
  0
LINE
  5
53C95
  8
0
 62
     0
 10
-19.7637838765508
 20
7.6525859618583771
 30
0.0
 11
-19.7637838765508
 21
7.6525859618583771
 31
0.0
  0
LINE
  5
53C96
  8
0
 62
     0
 10
-19.830075137287039
 20
7.5862947011221378
 30
0.0
 11
-19.830075137287039
 21
7.5862947011221378
 31
0.0
  0
LINE
  5
53C97
  8
0
 62
     0
 10
-19.896366398023279
 20
7.5200034403859002
 30
0.0
 11
-19.896366398023279
 21
7.5200034403859002
 31
0.0
  0
LINE
  5
53C98
  8
0
 62
     0
 10
-19.962657658759522
 20
7.4537121796496608
 30
0.0
 11
-19.962657658759522
 21
7.4537121796496608
 31
0.0
  0
LINE
  5
53C99
  8
0
 62
     0
 10
-20.028948919495761
 20
7.3874209189134232
 30
0.0
 11
-20.028948919495761
 21
7.3874209189134232
 31
0.0
  0
LINE
  5
53C9A
  8
0
 62
     0
 10
-20.095240180232
 20
7.3211296581771839
 30
0.0
 11
-20.095240180232
 21
7.3211296581771839
 31
0.0
  0
LINE
  5
53C9B
  8
0
 62
     0
 10
-20.16153144096824
 20
7.2548383974409463
 30
0.0
 11
-20.16153144096824
 21
7.2548383974409463
 31
0.0
  0
LINE
  5
53C9C
  8
0
 62
     0
 10
-20.227822701704479
 20
7.1885471367047069
 30
0.0
 11
-20.227822701704479
 21
7.1885471367047069
 31
0.0
  0
LINE
  5
53C9D
  8
0
 62
     0
 10
-20.294113962440711
 20
7.1222558759684693
 30
0.0
 11
-20.294113962440711
 21
7.1222558759684693
 31
0.0
  0
LINE
  5
53C9E
  8
0
 62
     0
 10
-20.360405223176961
 20
7.05596461523223
 30
0.0
 11
-20.360405223176961
 21
7.05596461523223
 31
0.0
  0
LINE
  5
53C9F
  8
0
 62
     0
 10
-20.42669648391319
 20
6.9896733544959924
 30
0.0
 11
-20.42669648391319
 21
6.9896733544959924
 31
0.0
  0
LINE
  5
53CA0
  8
0
 62
     0
 10
-20.49298774464944
 20
6.923382093759753
 30
0.0
 11
-20.49298774464944
 21
6.923382093759753
 31
0.0
  0
LINE
  5
53CA1
  8
0
 62
     0
 10
-20.559279005385669
 20
6.8570908330235154
 30
0.0
 11
-20.559279005385669
 21
6.8570908330235154
 31
0.0
  0
LINE
  5
53CA2
  8
0
 62
     0
 10
-20.625570266121908
 20
6.790799572287276
 30
0.0
 11
-20.625570266121908
 21
6.790799572287276
 31
0.0
  0
LINE
  5
53CA3
  8
0
 62
     0
 10
-20.691861526858151
 20
6.7245083115510376
 30
0.0
 11
-20.691861526858151
 21
6.7245083115510376
 31
0.0
  0
LINE
  5
53CA4
  8
0
 62
     0
 10
-20.758152787594391
 20
6.6582170508147991
 30
0.0
 11
-20.758152787594391
 21
6.6582170508147991
 31
0.0
  0
LINE
  5
53CA5
  8
0
 62
     0
 10
-20.82444404833063
 20
6.5919257900785606
 30
0.0
 11
-20.82444404833063
 21
6.5919257900785606
 31
0.0
  0
LINE
  5
53CA6
  8
0
 62
     0
 10
-20.890735309066869
 20
6.525634529342323
 30
0.0
 11
-20.890735309066869
 21
6.525634529342323
 31
0.0
  0
LINE
  5
53CA7
  8
0
 62
     0
 10
-20.957026569803109
 20
6.4593432686060837
 30
0.0
 11
-20.957026569803109
 21
6.4593432686060837
 31
0.0
  0
LINE
  5
53CA8
  8
0
 62
     0
 10
-21.023317830539352
 20
6.3930520078698461
 30
0.0
 11
-21.023317830539352
 21
6.3930520078698461
 31
0.0
  0
LINE
  5
53CA9
  8
0
 62
     0
 10
-21.089609091275591
 20
6.3267607471336067
 30
0.0
 11
-21.089609091275591
 21
6.3267607471336067
 31
0.0
  0
LINE
  5
53CAA
  8
0
 62
     0
 10
-21.15590035201183
 20
6.2604694863973691
 30
0.0
 11
-21.15590035201183
 21
6.2604694863973691
 31
0.0
  0
LINE
  5
53CAB
  8
0
 62
     0
 10
-21.22219161274807
 20
6.1941782256611297
 30
0.0
 11
-21.22219161274807
 21
6.1941782256611297
 31
0.0
  0
LINE
  5
53CAC
  8
0
 62
     0
 10
-21.288482873484298
 20
6.1278869649248922
 30
0.0
 11
-21.288482873484298
 21
6.1278869649248922
 31
0.0
  0
LINE
  5
53CAD
  8
0
 62
     0
 10
-21.354774134220548
 20
6.0615957041886528
 30
0.0
 11
-21.354774134220548
 21
6.0615957041886528
 31
0.0
  0
LINE
  5
53CAE
  8
0
 62
     0
 10
-21.421065394956781
 20
5.9953044434524152
 30
0.0
 11
-21.421065394956781
 21
5.9953044434524152
 31
0.0
  0
LINE
  5
53CAF
  8
0
 62
     0
 10
-21.487356655693031
 20
5.9290131827161758
 30
0.0
 11
-21.487356655693031
 21
5.9290131827161758
 31
0.0
  0
LINE
  5
53CB0
  8
0
 62
     0
 10
-21.553647916429259
 20
5.8627219219799382
 30
0.0
 11
-21.553647916429259
 21
5.8627219219799382
 31
0.0
  0
LINE
  5
53CB1
  8
0
 62
     0
 10
-21.619939177165499
 20
5.7964306612436989
 30
0.0
 11
-21.619939177165499
 21
5.7964306612436989
 31
0.0
  0
LINE
  5
53CB2
  8
0
 62
     0
 10
-21.686230437901742
 20
5.7301394005074613
 30
0.0
 11
-21.686230437901742
 21
5.7301394005074613
 31
0.0
  0
LINE
  5
53CB3
  8
0
 62
     0
 10
-19.134016899556539
 20
8.4149354603251414
 30
0.0
 11
-19.134016899556539
 21
8.4149354603251414
 31
0.0
  0
LINE
  5
53CB4
  8
0
 62
     0
 10
-19.200308160292781
 20
8.348644199588902
 30
0.0
 11
-19.200308160292781
 21
8.348644199588902
 31
0.0
  0
LINE
  5
53CB5
  8
0
 62
     0
 10
-19.266599421029021
 20
8.2823529388526627
 30
0.0
 11
-19.266599421029021
 21
8.2823529388526627
 31
0.0
  0
LINE
  5
53CB6
  8
0
 62
     0
 10
-19.33289068176526
 20
8.2160616781164233
 30
0.0
 11
-19.33289068176526
 21
8.2160616781164233
 31
0.0
  0
LINE
  5
53CB7
  8
0
 62
     0
 10
-19.3991819425015
 20
8.1497704173801822
 30
0.0
 11
-19.3991819425015
 21
8.1497704173801822
 31
0.0
  0
LINE
  5
53CB8
  8
0
 62
     0
 10
-19.465473203237739
 20
8.0834791566439446
 30
0.0
 11
-19.465473203237739
 21
8.0834791566439446
 31
0.0
  0
LINE
  5
53CB9
  8
0
 62
     0
 10
-19.531764463973978
 20
8.0171878959077052
 30
0.0
 11
-19.531764463973978
 21
8.0171878959077052
 31
0.0
  0
LINE
  5
53CBA
  8
0
 62
     0
 10
-19.664346985446439
 20
7.884605374435214
 30
0.0
 11
-19.664346985446439
 21
7.884605374435214
 31
0.0
  0
LINE
  5
53CBB
  8
0
 62
     0
 10
-19.730638246182679
 20
7.8183141136989764
 30
0.0
 11
-19.730638246182679
 21
7.8183141136989764
 31
0.0
  0
LINE
  5
53CBC
  8
0
 62
     0
 10
-19.796929506918922
 20
7.7520228529627371
 30
0.0
 11
-19.796929506918922
 21
7.7520228529627371
 31
0.0
  0
LINE
  5
53CBD
  8
0
 62
     0
 10
-19.863220767655161
 20
7.6857315922264986
 30
0.0
 11
-19.863220767655161
 21
7.6857315922264986
 31
0.0
  0
LINE
  5
53CBE
  8
0
 62
     0
 10
-19.9295120283914
 20
7.619440331490261
 30
0.0
 11
-19.9295120283914
 21
7.619440331490261
 31
0.0
  0
LINE
  5
53CBF
  8
0
 62
     0
 10
-19.995803289127629
 20
7.5531490707540216
 30
0.0
 11
-19.995803289127629
 21
7.5531490707540216
 31
0.0
  0
LINE
  5
53CC0
  8
0
 62
     0
 10
-20.062094549863879
 20
7.4868578100177841
 30
0.0
 11
-20.062094549863879
 21
7.4868578100177841
 31
0.0
  0
LINE
  5
53CC1
  8
0
 62
     0
 10
-20.128385810600118
 20
7.4205665492815447
 30
0.0
 11
-20.128385810600118
 21
7.4205665492815447
 31
0.0
  0
LINE
  5
53CC2
  8
0
 62
     0
 10
-20.194677071336351
 20
7.3542752885453071
 30
0.0
 11
-20.194677071336351
 21
7.3542752885453071
 31
0.0
  0
LINE
  5
53CC3
  8
0
 62
     0
 10
-20.26096833207259
 20
7.2879840278090677
 30
0.0
 11
-20.26096833207259
 21
7.2879840278090677
 31
0.0
  0
LINE
  5
53CC4
  8
0
 62
     0
 10
-20.327259592808829
 20
7.2216927670728301
 30
0.0
 11
-20.327259592808829
 21
7.2216927670728301
 31
0.0
  0
LINE
  5
53CC5
  8
0
 62
     0
 10
-20.393550853545069
 20
7.1554015063365908
 30
0.0
 11
-20.393550853545069
 21
7.1554015063365908
 31
0.0
  0
LINE
  5
53CC6
  8
0
 62
     0
 10
-20.459842114281312
 20
7.0891102456003532
 30
0.0
 11
-20.459842114281312
 21
7.0891102456003532
 31
0.0
  0
LINE
  5
53CC7
  8
0
 62
     0
 10
-20.526133375017551
 20
7.0228189848641138
 30
0.0
 11
-20.526133375017551
 21
7.0228189848641138
 31
0.0
  0
LINE
  5
53CC8
  8
0
 62
     0
 10
-20.59242463575379
 20
6.9565277241278762
 30
0.0
 11
-20.59242463575379
 21
6.9565277241278762
 31
0.0
  0
LINE
  5
53CC9
  8
0
 62
     0
 10
-20.65871589649003
 20
6.8902364633916369
 30
0.0
 11
-20.65871589649003
 21
6.8902364633916369
 31
0.0
  0
LINE
  5
53CCA
  8
0
 62
     0
 10
-20.725007157226269
 20
6.8239452026553993
 30
0.0
 11
-20.725007157226269
 21
6.8239452026553993
 31
0.0
  0
LINE
  5
53CCB
  8
0
 62
     0
 10
-20.791298417962508
 20
6.7576539419191599
 30
0.0
 11
-20.791298417962508
 21
6.7576539419191599
 31
0.0
  0
LINE
  5
53CCC
  8
0
 62
     0
 10
-20.857589678698751
 20
6.6913626811829223
 30
0.0
 11
-20.857589678698751
 21
6.6913626811829223
 31
0.0
  0
LINE
  5
53CCD
  8
0
 62
     0
 10
-20.923880939434991
 20
6.625071420446683
 30
0.0
 11
-20.923880939434991
 21
6.625071420446683
 31
0.0
  0
LINE
  5
53CCE
  8
0
 62
     0
 10
-20.99017220017123
 20
6.5587801597104454
 30
0.0
 11
-20.99017220017123
 21
6.5587801597104454
 31
0.0
  0
LINE
  5
53CCF
  8
0
 62
     0
 10
-21.056463460907469
 20
6.492488898974206
 30
0.0
 11
-21.056463460907469
 21
6.492488898974206
 31
0.0
  0
LINE
  5
53CD0
  8
0
 62
     0
 10
-21.122754721643709
 20
6.4261976382379684
 30
0.0
 11
-21.122754721643709
 21
6.4261976382379684
 31
0.0
  0
LINE
  5
53CD1
  8
0
 62
     0
 10
-21.189045982379941
 20
6.359906377501729
 30
0.0
 11
-21.189045982379941
 21
6.359906377501729
 31
0.0
  0
LINE
  5
53CD2
  8
0
 62
     0
 10
-21.255337243116191
 20
6.2936151167654906
 30
0.0
 11
-21.255337243116191
 21
6.2936151167654906
 31
0.0
  0
LINE
  5
53CD3
  8
0
 62
     0
 10
-21.32162850385242
 20
6.2273238560292521
 30
0.0
 11
-21.32162850385242
 21
6.2273238560292521
 31
0.0
  0
LINE
  5
53CD4
  8
0
 62
     0
 10
-21.387919764588659
 20
6.1610325952930136
 30
0.0
 11
-21.387919764588659
 21
6.1610325952930136
 31
0.0
  0
LINE
  5
53CD5
  8
0
 62
     0
 10
-21.454211025324899
 20
6.094741334556776
 30
0.0
 11
-21.454211025324899
 21
6.094741334556776
 31
0.0
  0
LINE
  5
53CD6
  8
0
 62
     0
 10
-21.520502286061141
 20
6.0284500738205367
 30
0.0
 11
-21.520502286061141
 21
6.0284500738205367
 31
0.0
  0
LINE
  5
53CD7
  8
0
 62
     0
 10
-21.586793546797381
 20
5.9621588130842991
 30
0.0
 11
-21.586793546797381
 21
5.9621588130842991
 31
0.0
  0
LINE
  5
53CD8
  8
0
 62
     0
 10
-21.65308480753362
 20
5.8958675523480597
 30
0.0
 11
-21.65308480753362
 21
5.8958675523480597
 31
0.0
  0
LINE
  5
53CD9
  8
0
 62
     0
 10
-19.233453790660899
 20
8.4480810906932575
 30
0.0
 11
-19.233453790660899
 21
8.4480810906932575
 31
0.0
  0
LINE
  5
53CDA
  8
0
 62
     0
 10
-19.299745051397139
 20
8.3817898299570182
 30
0.0
 11
-19.299745051397139
 21
8.3817898299570182
 31
0.0
  0
LINE
  5
53CDB
  8
0
 62
     0
 10
-19.366036312133382
 20
8.3154985692207788
 30
0.0
 11
-19.366036312133382
 21
8.3154985692207788
 31
0.0
  0
LINE
  5
53CDC
  8
0
 62
     0
 10
-19.432327572869621
 20
8.2492073084845394
 30
0.0
 11
-19.432327572869621
 21
8.2492073084845394
 31
0.0
  0
LINE
  5
53CDD
  8
0
 62
     0
 10
-19.49861883360586
 20
8.1829160477483001
 30
0.0
 11
-19.49861883360586
 21
8.1829160477483001
 31
0.0
  0
LINE
  5
53CDE
  8
0
 62
     0
 10
-19.5649100943421
 20
8.1166247870120607
 30
0.0
 11
-19.5649100943421
 21
8.1166247870120607
 31
0.0
  0
LINE
  5
53CDF
  8
0
 62
     0
 10
-19.631201355078339
 20
8.0503335262758213
 30
0.0
 11
-19.631201355078339
 21
8.0503335262758213
 31
0.0
  0
LINE
  5
53CE0
  8
0
 62
     0
 10
-19.7637838765508
 20
7.9177510048033337
 30
0.0
 11
-19.7637838765508
 21
7.9177510048033337
 31
0.0
  0
LINE
  5
53CE1
  8
0
 62
     0
 10
-19.830075137287039
 20
7.8514597440670961
 30
0.0
 11
-19.830075137287039
 21
7.8514597440670961
 31
0.0
  0
LINE
  5
53CE2
  8
0
 62
     0
 10
-19.896366398023279
 20
7.7851684833308568
 30
0.0
 11
-19.896366398023279
 21
7.7851684833308568
 31
0.0
  0
LINE
  5
53CE3
  8
0
 62
     0
 10
-19.962657658759522
 20
7.7188772225946192
 30
0.0
 11
-19.962657658759522
 21
7.7188772225946192
 31
0.0
  0
LINE
  5
53CE4
  8
0
 62
     0
 10
-20.028948919495761
 20
7.6525859618583798
 30
0.0
 11
-20.028948919495761
 21
7.6525859618583798
 31
0.0
  0
LINE
  5
53CE5
  8
0
 62
     0
 10
-20.095240180232
 20
7.5862947011221422
 30
0.0
 11
-20.095240180232
 21
7.5862947011221422
 31
0.0
  0
LINE
  5
53CE6
  8
0
 62
     0
 10
-20.16153144096824
 20
7.5200034403859028
 30
0.0
 11
-20.16153144096824
 21
7.5200034403859028
 31
0.0
  0
LINE
  5
53CE7
  8
0
 62
     0
 10
-20.227822701704479
 20
7.4537121796496653
 30
0.0
 11
-20.227822701704479
 21
7.4537121796496653
 31
0.0
  0
LINE
  5
53CE8
  8
0
 62
     0
 10
-20.294113962440711
 20
7.3874209189134259
 30
0.0
 11
-20.294113962440711
 21
7.3874209189134259
 31
0.0
  0
LINE
  5
53CE9
  8
0
 62
     0
 10
-20.360405223176961
 20
7.3211296581771883
 30
0.0
 11
-20.360405223176961
 21
7.3211296581771883
 31
0.0
  0
LINE
  5
53CEA
  8
0
 62
     0
 10
-20.42669648391319
 20
7.2548383974409489
 30
0.0
 11
-20.42669648391319
 21
7.2548383974409489
 31
0.0
  0
LINE
  5
53CEB
  8
0
 62
     0
 10
-20.49298774464944
 20
7.1885471367047113
 30
0.0
 11
-20.49298774464944
 21
7.1885471367047113
 31
0.0
  0
LINE
  5
53CEC
  8
0
 62
     0
 10
-20.559279005385669
 20
7.122255875968472
 30
0.0
 11
-20.559279005385669
 21
7.122255875968472
 31
0.0
  0
LINE
  5
53CED
  8
0
 62
     0
 10
-20.625570266121908
 20
7.0559646152322344
 30
0.0
 11
-20.625570266121908
 21
7.0559646152322344
 31
0.0
  0
LINE
  5
53CEE
  8
0
 62
     0
 10
-20.691861526858151
 20
6.989673354495995
 30
0.0
 11
-20.691861526858151
 21
6.989673354495995
 31
0.0
  0
LINE
  5
53CEF
  8
0
 62
     0
 10
-20.758152787594391
 20
6.9233820937597574
 30
0.0
 11
-20.758152787594391
 21
6.9233820937597574
 31
0.0
  0
LINE
  5
53CF0
  8
0
 62
     0
 10
-20.82444404833063
 20
6.8570908330235181
 30
0.0
 11
-20.82444404833063
 21
6.8570908330235181
 31
0.0
  0
LINE
  5
53CF1
  8
0
 62
     0
 10
-20.890735309066869
 20
6.7907995722872796
 30
0.0
 11
-20.890735309066869
 21
6.7907995722872796
 31
0.0
  0
LINE
  5
53CF2
  8
0
 62
     0
 10
-20.957026569803109
 20
6.724508311551042
 30
0.0
 11
-20.957026569803109
 21
6.724508311551042
 31
0.0
  0
LINE
  5
53CF3
  8
0
 62
     0
 10
-21.023317830539352
 20
6.6582170508148026
 30
0.0
 11
-21.023317830539352
 21
6.6582170508148026
 31
0.0
  0
LINE
  5
53CF4
  8
0
 62
     0
 10
-21.089609091275591
 20
6.5919257900785651
 30
0.0
 11
-21.089609091275591
 21
6.5919257900785651
 31
0.0
  0
LINE
  5
53CF5
  8
0
 62
     0
 10
-21.15590035201183
 20
6.5256345293423257
 30
0.0
 11
-21.15590035201183
 21
6.5256345293423257
 31
0.0
  0
LINE
  5
53CF6
  8
0
 62
     0
 10
-21.22219161274807
 20
6.4593432686060881
 30
0.0
 11
-21.22219161274807
 21
6.4593432686060881
 31
0.0
  0
LINE
  5
53CF7
  8
0
 62
     0
 10
-21.288482873484298
 20
6.3930520078698487
 30
0.0
 11
-21.288482873484298
 21
6.3930520078698487
 31
0.0
  0
LINE
  5
53CF8
  8
0
 62
     0
 10
-21.354774134220548
 20
6.3267607471336111
 30
0.0
 11
-21.354774134220548
 21
6.3267607471336111
 31
0.0
  0
LINE
  5
53CF9
  8
0
 62
     0
 10
-21.421065394956781
 20
6.2604694863973718
 30
0.0
 11
-21.421065394956781
 21
6.2604694863973718
 31
0.0
  0
LINE
  5
53CFA
  8
0
 62
     0
 10
-21.487356655693031
 20
6.1941782256611342
 30
0.0
 11
-21.487356655693031
 21
6.1941782256611342
 31
0.0
  0
LINE
  5
53CFB
  8
0
 62
     0
 10
-21.553647916429259
 20
6.1278869649248948
 30
0.0
 11
-21.553647916429259
 21
6.1278869649248948
 31
0.0
  0
LINE
  5
53CFC
  8
0
 62
     0
 10
-21.619939177165499
 20
6.0615957041886572
 30
0.0
 11
-21.619939177165499
 21
6.0615957041886572
 31
0.0
  0
LINE
  5
53CFD
  8
0
 62
     0
 10
-21.686230437901742
 20
5.9953044434524179
 30
0.0
 11
-21.686230437901742
 21
5.9953044434524179
 31
0.0
  0
LINE
  5
53CFE
  8
0
 62
     0
 10
-19.266599421029021
 20
8.5475179817976148
 30
0.0
 11
-19.266599421029021
 21
8.5475179817976148
 31
0.0
  0
LINE
  5
53CFF
  8
0
 62
     0
 10
-19.33289068176526
 20
8.4812267210613754
 30
0.0
 11
-19.33289068176526
 21
8.4812267210613754
 31
0.0
  0
LINE
  5
53D00
  8
0
 62
     0
 10
-19.3991819425015
 20
8.4149354603251361
 30
0.0
 11
-19.3991819425015
 21
8.4149354603251361
 31
0.0
  0
LINE
  5
53D01
  8
0
 62
     0
 10
-19.465473203237739
 20
8.3486441995888967
 30
0.0
 11
-19.465473203237739
 21
8.3486441995888967
 31
0.0
  0
LINE
  5
53D02
  8
0
 62
     0
 10
-19.531764463973978
 20
8.2823529388526573
 30
0.0
 11
-19.531764463973978
 21
8.2823529388526573
 31
0.0
  0
LINE
  5
53D03
  8
0
 62
     0
 10
-19.598055724710221
 20
8.2160616781164162
 30
0.0
 11
-19.598055724710221
 21
8.2160616781164162
 31
0.0
  0
LINE
  5
53D04
  8
0
 62
     0
 10
-19.66434698544645
 20
8.1497704173801786
 30
0.0
 11
-19.66434698544645
 21
8.1497704173801786
 31
0.0
  0
LINE
  5
53D05
  8
0
 62
     0
 10
-19.863220767655161
 20
7.9508966351714552
 30
0.0
 11
-19.863220767655161
 21
7.9508966351714552
 31
0.0
  0
LINE
  5
53D06
  8
0
 62
     0
 10
-19.9295120283914
 20
7.8846053744352158
 30
0.0
 11
-19.9295120283914
 21
7.8846053744352158
 31
0.0
  0
LINE
  5
53D07
  8
0
 62
     0
 10
-19.995803289127629
 20
7.8183141136989782
 30
0.0
 11
-19.995803289127629
 21
7.8183141136989782
 31
0.0
  0
LINE
  5
53D08
  8
0
 62
     0
 10
-20.062094549863879
 20
7.7520228529627389
 30
0.0
 11
-20.062094549863879
 21
7.7520228529627389
 31
0.0
  0
LINE
  5
53D09
  8
0
 62
     0
 10
-20.128385810600118
 20
7.6857315922265013
 30
0.0
 11
-20.128385810600118
 21
7.6857315922265013
 31
0.0
  0
LINE
  5
53D0A
  8
0
 62
     0
 10
-20.194677071336351
 20
7.6194403314902619
 30
0.0
 11
-20.194677071336351
 21
7.6194403314902619
 31
0.0
  0
LINE
  5
53D0B
  8
0
 62
     0
 10
-20.26096833207259
 20
7.5531490707540243
 30
0.0
 11
-20.26096833207259
 21
7.5531490707540243
 31
0.0
  0
LINE
  5
53D0C
  8
0
 62
     0
 10
-20.327259592808829
 20
7.4868578100177849
 30
0.0
 11
-20.327259592808829
 21
7.4868578100177849
 31
0.0
  0
LINE
  5
53D0D
  8
0
 62
     0
 10
-20.393550853545069
 20
7.4205665492815474
 30
0.0
 11
-20.393550853545069
 21
7.4205665492815474
 31
0.0
  0
LINE
  5
53D0E
  8
0
 62
     0
 10
-20.459842114281312
 20
7.354275288545308
 30
0.0
 11
-20.459842114281312
 21
7.354275288545308
 31
0.0
  0
LINE
  5
53D0F
  8
0
 62
     0
 10
-20.526133375017551
 20
7.2879840278090704
 30
0.0
 11
-20.526133375017551
 21
7.2879840278090704
 31
0.0
  0
LINE
  5
53D10
  8
0
 62
     0
 10
-20.59242463575379
 20
7.221692767072831
 30
0.0
 11
-20.59242463575379
 21
7.221692767072831
 31
0.0
  0
LINE
  5
53D11
  8
0
 62
     0
 10
-20.65871589649003
 20
7.1554015063365934
 30
0.0
 11
-20.65871589649003
 21
7.1554015063365934
 31
0.0
  0
LINE
  5
53D12
  8
0
 62
     0
 10
-20.725007157226269
 20
7.0891102456003541
 30
0.0
 11
-20.725007157226269
 21
7.0891102456003541
 31
0.0
  0
LINE
  5
53D13
  8
0
 62
     0
 10
-20.791298417962508
 20
7.0228189848641156
 30
0.0
 11
-20.791298417962508
 21
7.0228189848641156
 31
0.0
  0
LINE
  5
53D14
  8
0
 62
     0
 10
-20.857589678698751
 20
6.956527724127878
 30
0.0
 11
-20.857589678698751
 21
6.956527724127878
 31
0.0
  0
LINE
  5
53D15
  8
0
 62
     0
 10
-20.923880939434991
 20
6.8902364633916386
 30
0.0
 11
-20.923880939434991
 21
6.8902364633916386
 31
0.0
  0
LINE
  5
53D16
  8
0
 62
     0
 10
-20.99017220017123
 20
6.8239452026554011
 30
0.0
 11
-20.99017220017123
 21
6.8239452026554011
 31
0.0
  0
LINE
  5
53D17
  8
0
 62
     0
 10
-21.056463460907469
 20
6.7576539419191617
 30
0.0
 11
-21.056463460907469
 21
6.7576539419191617
 31
0.0
  0
LINE
  5
53D18
  8
0
 62
     0
 10
-21.122754721643709
 20
6.6913626811829241
 30
0.0
 11
-21.122754721643709
 21
6.6913626811829241
 31
0.0
  0
LINE
  5
53D19
  8
0
 62
     0
 10
-21.189045982379941
 20
6.6250714204466847
 30
0.0
 11
-21.189045982379941
 21
6.6250714204466847
 31
0.0
  0
LINE
  5
53D1A
  8
0
 62
     0
 10
-21.255337243116191
 20
6.5587801597104471
 30
0.0
 11
-21.255337243116191
 21
6.5587801597104471
 31
0.0
  0
LINE
  5
53D1B
  8
0
 62
     0
 10
-21.32162850385242
 20
6.4924888989742078
 30
0.0
 11
-21.32162850385242
 21
6.4924888989742078
 31
0.0
  0
LINE
  5
53D1C
  8
0
 62
     0
 10
-21.387919764588659
 20
6.4261976382379702
 30
0.0
 11
-21.387919764588659
 21
6.4261976382379702
 31
0.0
  0
LINE
  5
53D1D
  8
0
 62
     0
 10
-21.454211025324899
 20
6.3599063775017308
 30
0.0
 11
-21.454211025324899
 21
6.3599063775017308
 31
0.0
  0
LINE
  5
53D1E
  8
0
 62
     0
 10
-21.520502286061141
 20
6.2936151167654932
 30
0.0
 11
-21.520502286061141
 21
6.2936151167654932
 31
0.0
  0
LINE
  5
53D1F
  8
0
 62
     0
 10
-21.586793546797381
 20
6.2273238560292539
 30
0.0
 11
-21.586793546797381
 21
6.2273238560292539
 31
0.0
  0
LINE
  5
53D20
  8
0
 62
     0
 10
-21.65308480753362
 20
6.1610325952930163
 30
0.0
 11
-21.65308480753362
 21
6.1610325952930163
 31
0.0
  0
LINE
  5
53D21
  8
0
 62
     0
 10
-19.366036312133382
 20
8.5806636121657363
 30
0.0
 11
-19.366036312133382
 21
8.5806636121657363
 31
0.0
  0
LINE
  5
53D22
  8
0
 62
     0
 10
-19.432327572869621
 20
8.5143723514294969
 30
0.0
 11
-19.432327572869621
 21
8.5143723514294969
 31
0.0
  0
LINE
  5
53D23
  8
0
 62
     0
 10
-19.49861883360586
 20
8.4480810906932575
 30
0.0
 11
-19.49861883360586
 21
8.4480810906932575
 31
0.0
  0
LINE
  5
53D24
  8
0
 62
     0
 10
-19.5649100943421
 20
8.3817898299570182
 30
0.0
 11
-19.5649100943421
 21
8.3817898299570182
 31
0.0
  0
LINE
  5
53D25
  8
0
 62
     0
 10
-19.631201355078339
 20
8.3154985692207788
 30
0.0
 11
-19.631201355078339
 21
8.3154985692207788
 31
0.0
  0
LINE
  5
53D26
  8
0
 62
     0
 10
-19.697492615814578
 20
8.2492073084845394
 30
0.0
 11
-19.697492615814578
 21
8.2492073084845394
 31
0.0
  0
LINE
  5
53D27
  8
0
 62
     0
 10
-19.763783876550811
 20
8.1829160477483001
 30
0.0
 11
-19.763783876550811
 21
8.1829160477483001
 31
0.0
  0
LINE
  5
53D28
  8
0
 62
     0
 10
-19.896366398023279
 20
8.0503335262758124
 30
0.0
 11
-19.896366398023279
 21
8.0503335262758124
 31
0.0
  0
LINE
  5
53D29
  8
0
 62
     0
 10
-19.962657658759522
 20
7.9840422655395731
 30
0.0
 11
-19.962657658759522
 21
7.9840422655395731
 31
0.0
  0
LINE
  5
53D2A
  8
0
 62
     0
 10
-20.028948919495761
 20
7.9177510048033337
 30
0.0
 11
-20.028948919495761
 21
7.9177510048033337
 31
0.0
  0
LINE
  5
53D2B
  8
0
 62
     0
 10
-20.095240180232
 20
7.8514597440670961
 30
0.0
 11
-20.095240180232
 21
7.8514597440670961
 31
0.0
  0
LINE
  5
53D2C
  8
0
 62
     0
 10
-20.16153144096824
 20
7.7851684833308568
 30
0.0
 11
-20.16153144096824
 21
7.7851684833308568
 31
0.0
  0
LINE
  5
53D2D
  8
0
 62
     0
 10
-20.227822701704479
 20
7.7188772225946192
 30
0.0
 11
-20.227822701704479
 21
7.7188772225946192
 31
0.0
  0
LINE
  5
53D2E
  8
0
 62
     0
 10
-20.294113962440711
 20
7.6525859618583798
 30
0.0
 11
-20.294113962440711
 21
7.6525859618583798
 31
0.0
  0
LINE
  5
53D2F
  8
0
 62
     0
 10
-20.360405223176961
 20
7.5862947011221422
 30
0.0
 11
-20.360405223176961
 21
7.5862947011221422
 31
0.0
  0
LINE
  5
53D30
  8
0
 62
     0
 10
-20.42669648391319
 20
7.5200034403859028
 30
0.0
 11
-20.42669648391319
 21
7.5200034403859028
 31
0.0
  0
LINE
  5
53D31
  8
0
 62
     0
 10
-20.49298774464944
 20
7.4537121796496653
 30
0.0
 11
-20.49298774464944
 21
7.4537121796496653
 31
0.0
  0
LINE
  5
53D32
  8
0
 62
     0
 10
-20.559279005385669
 20
7.3874209189134259
 30
0.0
 11
-20.559279005385669
 21
7.3874209189134259
 31
0.0
  0
LINE
  5
53D33
  8
0
 62
     0
 10
-20.625570266121908
 20
7.3211296581771883
 30
0.0
 11
-20.625570266121908
 21
7.3211296581771883
 31
0.0
  0
LINE
  5
53D34
  8
0
 62
     0
 10
-20.691861526858151
 20
7.2548383974409489
 30
0.0
 11
-20.691861526858151
 21
7.2548383974409489
 31
0.0
  0
LINE
  5
53D35
  8
0
 62
     0
 10
-20.758152787594391
 20
7.1885471367047113
 30
0.0
 11
-20.758152787594391
 21
7.1885471367047113
 31
0.0
  0
LINE
  5
53D36
  8
0
 62
     0
 10
-20.82444404833063
 20
7.122255875968472
 30
0.0
 11
-20.82444404833063
 21
7.122255875968472
 31
0.0
  0
LINE
  5
53D37
  8
0
 62
     0
 10
-20.890735309066869
 20
7.0559646152322344
 30
0.0
 11
-20.890735309066869
 21
7.0559646152322344
 31
0.0
  0
LINE
  5
53D38
  8
0
 62
     0
 10
-20.957026569803109
 20
6.989673354495995
 30
0.0
 11
-20.957026569803109
 21
6.989673354495995
 31
0.0
  0
LINE
  5
53D39
  8
0
 62
     0
 10
-21.023317830539352
 20
6.9233820937597574
 30
0.0
 11
-21.023317830539352
 21
6.9233820937597574
 31
0.0
  0
LINE
  5
53D3A
  8
0
 62
     0
 10
-21.089609091275591
 20
6.8570908330235181
 30
0.0
 11
-21.089609091275591
 21
6.8570908330235181
 31
0.0
  0
LINE
  5
53D3B
  8
0
 62
     0
 10
-21.15590035201183
 20
6.7907995722872796
 30
0.0
 11
-21.15590035201183
 21
6.7907995722872796
 31
0.0
  0
LINE
  5
53D3C
  8
0
 62
     0
 10
-21.22219161274807
 20
6.724508311551042
 30
0.0
 11
-21.22219161274807
 21
6.724508311551042
 31
0.0
  0
LINE
  5
53D3D
  8
0
 62
     0
 10
-21.288482873484298
 20
6.6582170508148026
 30
0.0
 11
-21.288482873484298
 21
6.6582170508148026
 31
0.0
  0
LINE
  5
53D3E
  8
0
 62
     0
 10
-21.354774134220548
 20
6.5919257900785651
 30
0.0
 11
-21.354774134220548
 21
6.5919257900785651
 31
0.0
  0
LINE
  5
53D3F
  8
0
 62
     0
 10
-21.421065394956781
 20
6.5256345293423257
 30
0.0
 11
-21.421065394956781
 21
6.5256345293423257
 31
0.0
  0
LINE
  5
53D40
  8
0
 62
     0
 10
-21.487356655693031
 20
6.4593432686060881
 30
0.0
 11
-21.487356655693031
 21
6.4593432686060881
 31
0.0
  0
LINE
  5
53D41
  8
0
 62
     0
 10
-21.553647916429259
 20
6.3930520078698487
 30
0.0
 11
-21.553647916429259
 21
6.3930520078698487
 31
0.0
  0
LINE
  5
53D42
  8
0
 62
     0
 10
-21.619939177165499
 20
6.3267607471336111
 30
0.0
 11
-21.619939177165499
 21
6.3267607471336111
 31
0.0
  0
LINE
  5
53D43
  8
0
 62
     0
 10
-19.465473203237739
 20
8.6138092425338542
 30
0.0
 11
-19.465473203237739
 21
8.6138092425338542
 31
0.0
  0
LINE
  5
53D44
  8
0
 62
     0
 10
-19.531764463973978
 20
8.5475179817976148
 30
0.0
 11
-19.531764463973978
 21
8.5475179817976148
 31
0.0
  0
LINE
  5
53D45
  8
0
 62
     0
 10
-19.598055724710221
 20
8.4812267210613754
 30
0.0
 11
-19.598055724710221
 21
8.4812267210613754
 31
0.0
  0
LINE
  5
53D46
  8
0
 62
     0
 10
-19.66434698544645
 20
8.4149354603251361
 30
0.0
 11
-19.66434698544645
 21
8.4149354603251361
 31
0.0
  0
LINE
  5
53D47
  8
0
 62
     0
 10
-19.730638246182689
 20
8.3486441995888967
 30
0.0
 11
-19.730638246182689
 21
8.3486441995888967
 31
0.0
  0
LINE
  5
53D48
  8
0
 62
     0
 10
-19.796929506918929
 20
8.2823529388526573
 30
0.0
 11
-19.796929506918929
 21
8.2823529388526573
 31
0.0
  0
LINE
  5
53D49
  8
0
 62
     0
 10
-19.863220767655172
 20
8.2160616781164162
 30
0.0
 11
-19.863220767655172
 21
8.2160616781164162
 31
0.0
  0
LINE
  5
53D4A
  8
0
 62
     0
 10
-19.99580328912764
 20
8.0834791566439321
 30
0.0
 11
-19.99580328912764
 21
8.0834791566439321
 31
0.0
  0
LINE
  5
53D4B
  8
0
 62
     0
 10
-20.062094549863879
 20
8.0171878959076945
 30
0.0
 11
-20.062094549863879
 21
8.0171878959076945
 31
0.0
  0
LINE
  5
53D4C
  8
0
 62
     0
 10
-20.128385810600118
 20
7.9508966351714552
 30
0.0
 11
-20.128385810600118
 21
7.9508966351714552
 31
0.0
  0
LINE
  5
53D4D
  8
0
 62
     0
 10
-20.194677071336361
 20
7.8846053744352158
 30
0.0
 11
-20.194677071336361
 21
7.8846053744352158
 31
0.0
  0
LINE
  5
53D4E
  8
0
 62
     0
 10
-20.260968332072601
 20
7.8183141136989782
 30
0.0
 11
-20.260968332072601
 21
7.8183141136989782
 31
0.0
  0
LINE
  5
53D4F
  8
0
 62
     0
 10
-20.32725959280884
 20
7.7520228529627389
 30
0.0
 11
-20.32725959280884
 21
7.7520228529627389
 31
0.0
  0
LINE
  5
53D50
  8
0
 62
     0
 10
-20.393550853545069
 20
7.6857315922265013
 30
0.0
 11
-20.393550853545069
 21
7.6857315922265013
 31
0.0
  0
LINE
  5
53D51
  8
0
 62
     0
 10
-20.459842114281319
 20
7.6194403314902619
 30
0.0
 11
-20.459842114281319
 21
7.6194403314902619
 31
0.0
  0
LINE
  5
53D52
  8
0
 62
     0
 10
-20.526133375017551
 20
7.5531490707540243
 30
0.0
 11
-20.526133375017551
 21
7.5531490707540243
 31
0.0
  0
LINE
  5
53D53
  8
0
 62
     0
 10
-20.592424635753801
 20
7.4868578100177849
 30
0.0
 11
-20.592424635753801
 21
7.4868578100177849
 31
0.0
  0
LINE
  5
53D54
  8
0
 62
     0
 10
-20.65871589649003
 20
7.4205665492815474
 30
0.0
 11
-20.65871589649003
 21
7.4205665492815474
 31
0.0
  0
LINE
  5
53D55
  8
0
 62
     0
 10
-20.725007157226269
 20
7.354275288545308
 30
0.0
 11
-20.725007157226269
 21
7.354275288545308
 31
0.0
  0
LINE
  5
53D56
  8
0
 62
     0
 10
-20.791298417962508
 20
7.2879840278090704
 30
0.0
 11
-20.791298417962508
 21
7.2879840278090704
 31
0.0
  0
LINE
  5
53D57
  8
0
 62
     0
 10
-20.857589678698751
 20
7.221692767072831
 30
0.0
 11
-20.857589678698751
 21
7.221692767072831
 31
0.0
  0
LINE
  5
53D58
  8
0
 62
     0
 10
-20.923880939434991
 20
7.1554015063365934
 30
0.0
 11
-20.923880939434991
 21
7.1554015063365934
 31
0.0
  0
LINE
  5
53D59
  8
0
 62
     0
 10
-20.99017220017123
 20
7.0891102456003541
 30
0.0
 11
-20.99017220017123
 21
7.0891102456003541
 31
0.0
  0
LINE
  5
53D5A
  8
0
 62
     0
 10
-21.056463460907469
 20
7.0228189848641156
 30
0.0
 11
-21.056463460907469
 21
7.0228189848641156
 31
0.0
  0
LINE
  5
53D5B
  8
0
 62
     0
 10
-21.122754721643709
 20
6.956527724127878
 30
0.0
 11
-21.122754721643709
 21
6.956527724127878
 31
0.0
  0
LINE
  5
53D5C
  8
0
 62
     0
 10
-21.189045982379952
 20
6.8902364633916386
 30
0.0
 11
-21.189045982379952
 21
6.8902364633916386
 31
0.0
  0
LINE
  5
53D5D
  8
0
 62
     0
 10
-21.255337243116191
 20
6.8239452026554011
 30
0.0
 11
-21.255337243116191
 21
6.8239452026554011
 31
0.0
  0
LINE
  5
53D5E
  8
0
 62
     0
 10
-21.32162850385243
 20
6.7576539419191617
 30
0.0
 11
-21.32162850385243
 21
6.7576539419191617
 31
0.0
  0
LINE
  5
53D5F
  8
0
 62
     0
 10
-21.387919764588659
 20
6.6913626811829241
 30
0.0
 11
-21.387919764588659
 21
6.6913626811829241
 31
0.0
  0
LINE
  5
53D60
  8
0
 62
     0
 10
-21.454211025324909
 20
6.6250714204466847
 30
0.0
 11
-21.454211025324909
 21
6.6250714204466847
 31
0.0
  0
LINE
  5
53D61
  8
0
 62
     0
 10
-21.520502286061141
 20
6.5587801597104471
 30
0.0
 11
-21.520502286061141
 21
6.5587801597104471
 31
0.0
  0
LINE
  5
53D62
  8
0
 62
     0
 10
-21.586793546797391
 20
6.4924888989742078
 30
0.0
 11
-21.586793546797391
 21
6.4924888989742078
 31
0.0
  0
LINE
  5
53D63
  8
0
 62
     0
 10
-19.564910094342089
 20
8.6469548729019756
 30
0.0
 11
-19.564910094342089
 21
8.6469548729019756
 31
0.0
  0
LINE
  5
53D64
  8
0
 62
     0
 10
-19.631201355078328
 20
8.5806636121657363
 30
0.0
 11
-19.631201355078328
 21
8.5806636121657363
 31
0.0
  0
LINE
  5
53D65
  8
0
 62
     0
 10
-19.697492615814571
 20
8.5143723514294969
 30
0.0
 11
-19.697492615814571
 21
8.5143723514294969
 31
0.0
  0
LINE
  5
53D66
  8
0
 62
     0
 10
-19.763783876550811
 20
8.4480810906932575
 30
0.0
 11
-19.763783876550811
 21
8.4480810906932575
 31
0.0
  0
LINE
  5
53D67
  8
0
 62
     0
 10
-19.83007513728705
 20
8.3817898299570182
 30
0.0
 11
-19.83007513728705
 21
8.3817898299570182
 31
0.0
  0
LINE
  5
53D68
  8
0
 62
     0
 10
-19.896366398023289
 20
8.3154985692207788
 30
0.0
 11
-19.896366398023289
 21
8.3154985692207788
 31
0.0
  0
LINE
  5
53D69
  8
0
 62
     0
 10
-19.962657658759529
 20
8.2492073084845394
 30
0.0
 11
-19.962657658759529
 21
8.2492073084845394
 31
0.0
  0
LINE
  5
53D6A
  8
0
 62
     0
 10
-20.095240180232
 20
8.1166247870120554
 30
0.0
 11
-20.095240180232
 21
8.1166247870120554
 31
0.0
  0
LINE
  5
53D6B
  8
0
 62
     0
 10
-20.16153144096824
 20
8.0503335262758142
 30
0.0
 11
-20.16153144096824
 21
8.0503335262758142
 31
0.0
  0
LINE
  5
53D6C
  8
0
 62
     0
 10
-20.227822701704479
 20
7.9840422655395766
 30
0.0
 11
-20.227822701704479
 21
7.9840422655395766
 31
0.0
  0
LINE
  5
53D6D
  8
0
 62
     0
 10
-20.294113962440719
 20
7.917751004803339
 30
0.0
 11
-20.294113962440719
 21
7.917751004803339
 31
0.0
  0
LINE
  5
53D6E
  8
0
 62
     0
 10
-20.360405223176961
 20
7.8514597440670997
 30
0.0
 11
-20.360405223176961
 21
7.8514597440670997
 31
0.0
  0
LINE
  5
53D6F
  8
0
 62
     0
 10
-20.426696483913201
 20
7.7851684833308621
 30
0.0
 11
-20.426696483913201
 21
7.7851684833308621
 31
0.0
  0
LINE
  5
53D70
  8
0
 62
     0
 10
-20.49298774464944
 20
7.7188772225946227
 30
0.0
 11
-20.49298774464944
 21
7.7188772225946227
 31
0.0
  0
LINE
  5
53D71
  8
0
 62
     0
 10
-20.55927900538568
 20
7.6525859618583851
 30
0.0
 11
-20.55927900538568
 21
7.6525859618583851
 31
0.0
  0
LINE
  5
53D72
  8
0
 62
     0
 10
-20.625570266121908
 20
7.5862947011221458
 30
0.0
 11
-20.625570266121908
 21
7.5862947011221458
 31
0.0
  0
LINE
  5
53D73
  8
0
 62
     0
 10
-20.691861526858158
 20
7.5200034403859082
 30
0.0
 11
-20.691861526858158
 21
7.5200034403859082
 31
0.0
  0
LINE
  5
53D74
  8
0
 62
     0
 10
-20.758152787594391
 20
7.4537121796496688
 30
0.0
 11
-20.758152787594391
 21
7.4537121796496688
 31
0.0
  0
LINE
  5
53D75
  8
0
 62
     0
 10
-20.82444404833063
 20
7.3874209189134312
 30
0.0
 11
-20.82444404833063
 21
7.3874209189134312
 31
0.0
  0
LINE
  5
53D76
  8
0
 62
     0
 10
-20.890735309066869
 20
7.3211296581771919
 30
0.0
 11
-20.890735309066869
 21
7.3211296581771919
 31
0.0
  0
LINE
  5
53D77
  8
0
 62
     0
 10
-20.957026569803109
 20
7.2548383974409543
 30
0.0
 11
-20.957026569803109
 21
7.2548383974409543
 31
0.0
  0
LINE
  5
53D78
  8
0
 62
     0
 10
-21.023317830539352
 20
7.1885471367047149
 30
0.0
 11
-21.023317830539352
 21
7.1885471367047149
 31
0.0
  0
LINE
  5
53D79
  8
0
 62
     0
 10
-21.089609091275591
 20
7.1222558759684773
 30
0.0
 11
-21.089609091275591
 21
7.1222558759684773
 31
0.0
  0
LINE
  5
53D7A
  8
0
 62
     0
 10
-21.15590035201183
 20
7.0559646152322379
 30
0.0
 11
-21.15590035201183
 21
7.0559646152322379
 31
0.0
  0
LINE
  5
53D7B
  8
0
 62
     0
 10
-21.22219161274807
 20
6.9896733544960004
 30
0.0
 11
-21.22219161274807
 21
6.9896733544960004
 31
0.0
  0
LINE
  5
53D7C
  8
0
 62
     0
 10
-21.288482873484309
 20
6.923382093759761
 30
0.0
 11
-21.288482873484309
 21
6.923382093759761
 31
0.0
  0
LINE
  5
53D7D
  8
0
 62
     0
 10
-21.354774134220548
 20
6.8570908330235234
 30
0.0
 11
-21.354774134220548
 21
6.8570908330235234
 31
0.0
  0
LINE
  5
53D7E
  8
0
 62
     0
 10
-21.421065394956791
 20
6.790799572287284
 30
0.0
 11
-21.421065394956791
 21
6.790799572287284
 31
0.0
  0
LINE
  5
53D7F
  8
0
 62
     0
 10
-21.487356655693031
 20
6.7245083115510456
 30
0.0
 11
-21.487356655693031
 21
6.7245083115510456
 31
0.0
  0
LINE
  5
53D80
  8
0
 62
     0
 10
-21.55364791642927
 20
6.6582170508148071
 30
0.0
 11
-21.55364791642927
 21
6.6582170508148071
 31
0.0
  0
LINE
  5
53D81
  8
0
 62
     0
 10
-19.796929506918929
 20
8.5475179817976201
 30
0.0
 11
-19.796929506918929
 21
8.5475179817976201
 31
0.0
  0
LINE
  5
53D82
  8
0
 62
     0
 10
-19.863220767655172
 20
8.4812267210613808
 30
0.0
 11
-19.863220767655172
 21
8.4812267210613808
 31
0.0
  0
LINE
  5
53D83
  8
0
 62
     0
 10
-19.929512028391411
 20
8.4149354603251414
 30
0.0
 11
-19.929512028391411
 21
8.4149354603251414
 31
0.0
  0
LINE
  5
53D84
  8
0
 62
     0
 10
-19.99580328912765
 20
8.348644199588902
 30
0.0
 11
-19.99580328912765
 21
8.348644199588902
 31
0.0
  0
LINE
  5
53D85
  8
0
 62
     0
 10
-20.06209454986389
 20
8.2823529388526627
 30
0.0
 11
-20.06209454986389
 21
8.2823529388526627
 31
0.0
  0
LINE
  5
53D86
  8
0
 62
     0
 10
-20.194677071336361
 20
8.1497704173801768
 30
0.0
 11
-20.194677071336361
 21
8.1497704173801768
 31
0.0
  0
LINE
  5
53D87
  8
0
 62
     0
 10
-20.260968332072601
 20
8.0834791566439375
 30
0.0
 11
-20.260968332072601
 21
8.0834791566439375
 31
0.0
  0
LINE
  5
53D88
  8
0
 62
     0
 10
-20.32725959280884
 20
8.0171878959076981
 30
0.0
 11
-20.32725959280884
 21
8.0171878959076981
 31
0.0
  0
LINE
  5
53D89
  8
0
 62
     0
 10
-20.393550853545069
 20
7.9508966351714587
 30
0.0
 11
-20.393550853545069
 21
7.9508966351714587
 31
0.0
  0
LINE
  5
53D8A
  8
0
 62
     0
 10
-20.459842114281319
 20
7.8846053744352211
 30
0.0
 11
-20.459842114281319
 21
7.8846053744352211
 31
0.0
  0
LINE
  5
53D8B
  8
0
 62
     0
 10
-20.526133375017551
 20
7.8183141136989818
 30
0.0
 11
-20.526133375017551
 21
7.8183141136989818
 31
0.0
  0
LINE
  5
53D8C
  8
0
 62
     0
 10
-20.592424635753801
 20
7.7520228529627442
 30
0.0
 11
-20.592424635753801
 21
7.7520228529627442
 31
0.0
  0
LINE
  5
53D8D
  8
0
 62
     0
 10
-20.65871589649003
 20
7.6857315922265048
 30
0.0
 11
-20.65871589649003
 21
7.6857315922265048
 31
0.0
  0
LINE
  5
53D8E
  8
0
 62
     0
 10
-20.725007157226269
 20
7.6194403314902672
 30
0.0
 11
-20.725007157226269
 21
7.6194403314902672
 31
0.0
  0
LINE
  5
53D8F
  8
0
 62
     0
 10
-20.791298417962508
 20
7.5531490707540279
 30
0.0
 11
-20.791298417962508
 21
7.5531490707540279
 31
0.0
  0
LINE
  5
53D90
  8
0
 62
     0
 10
-20.857589678698751
 20
7.4868578100177903
 30
0.0
 11
-20.857589678698751
 21
7.4868578100177903
 31
0.0
  0
LINE
  5
53D91
  8
0
 62
     0
 10
-20.923880939434991
 20
7.4205665492815509
 30
0.0
 11
-20.923880939434991
 21
7.4205665492815509
 31
0.0
  0
LINE
  5
53D92
  8
0
 62
     0
 10
-20.99017220017123
 20
7.3542752885453133
 30
0.0
 11
-20.99017220017123
 21
7.3542752885453133
 31
0.0
  0
LINE
  5
53D93
  8
0
 62
     0
 10
-21.056463460907469
 20
7.287984027809074
 30
0.0
 11
-21.056463460907469
 21
7.287984027809074
 31
0.0
  0
LINE
  5
53D94
  8
0
 62
     0
 10
-21.122754721643709
 20
7.2216927670728364
 30
0.0
 11
-21.122754721643709
 21
7.2216927670728364
 31
0.0
  0
LINE
  5
53D95
  8
0
 62
     0
 10
-21.189045982379952
 20
7.155401506336597
 30
0.0
 11
-21.189045982379952
 21
7.155401506336597
 31
0.0
  0
LINE
  5
53D96
  8
0
 62
     0
 10
-21.255337243116191
 20
7.0891102456003594
 30
0.0
 11
-21.255337243116191
 21
7.0891102456003594
 31
0.0
  0
LINE
  5
53D97
  8
0
 62
     0
 10
-21.32162850385243
 20
7.02281898486412
 30
0.0
 11
-21.32162850385243
 21
7.02281898486412
 31
0.0
  0
LINE
  5
53D98
  8
0
 62
     0
 10
-21.387919764588659
 20
6.9565277241278816
 30
0.0
 11
-21.387919764588659
 21
6.9565277241278816
 31
0.0
  0
LINE
  5
53D99
  8
0
 62
     0
 10
-21.454211025324909
 20
6.8902364633916431
 30
0.0
 11
-21.454211025324909
 21
6.8902364633916431
 31
0.0
  0
LINE
  5
53D9A
  8
0
 62
     0
 10
-20.095240180232011
 20
8.3817898299570182
 30
0.0
 11
-20.095240180232011
 21
8.3817898299570182
 31
0.0
  0
LINE
  5
53D9B
  8
0
 62
     0
 10
-20.227822701704479
 20
8.2492073084845359
 30
0.0
 11
-20.227822701704479
 21
8.2492073084845359
 31
0.0
  0
LINE
  5
53D9C
  8
0
 62
     0
 10
-20.294113962440719
 20
8.1829160477482965
 30
0.0
 11
-20.294113962440719
 21
8.1829160477482965
 31
0.0
  0
LINE
  5
53D9D
  8
0
 62
     0
 10
-20.360405223176961
 20
8.1166247870120571
 30
0.0
 11
-20.360405223176961
 21
8.1166247870120571
 31
0.0
  0
LINE
  5
53D9E
  8
0
 62
     0
 10
-20.426696483913201
 20
8.0503335262758178
 30
0.0
 11
-20.426696483913201
 21
8.0503335262758178
 31
0.0
  0
LINE
  5
53D9F
  8
0
 62
     0
 10
-20.49298774464944
 20
7.9840422655395793
 30
0.0
 11
-20.49298774464944
 21
7.9840422655395793
 31
0.0
  0
LINE
  5
53DA0
  8
0
 62
     0
 10
-20.55927900538568
 20
7.9177510048033399
 30
0.0
 11
-20.55927900538568
 21
7.9177510048033399
 31
0.0
  0
LINE
  5
53DA1
  8
0
 62
     0
 10
-20.625570266121908
 20
7.8514597440671023
 30
0.0
 11
-20.625570266121908
 21
7.8514597440671023
 31
0.0
  0
LINE
  5
53DA2
  8
0
 62
     0
 10
-20.691861526858158
 20
7.785168483330863
 30
0.0
 11
-20.691861526858158
 21
7.785168483330863
 31
0.0
  0
LINE
  5
53DA3
  8
0
 62
     0
 10
-20.758152787594391
 20
7.7188772225946254
 30
0.0
 11
-20.758152787594391
 21
7.7188772225946254
 31
0.0
  0
LINE
  5
53DA4
  8
0
 62
     0
 10
-20.82444404833063
 20
7.652585961858386
 30
0.0
 11
-20.82444404833063
 21
7.652585961858386
 31
0.0
  0
LINE
  5
53DA5
  8
0
 62
     0
 10
-20.890735309066869
 20
7.5862947011221484
 30
0.0
 11
-20.890735309066869
 21
7.5862947011221484
 31
0.0
  0
LINE
  5
53DA6
  8
0
 62
     0
 10
-20.957026569803109
 20
7.5200034403859091
 30
0.0
 11
-20.957026569803109
 21
7.5200034403859091
 31
0.0
  0
LINE
  5
53DA7
  8
0
 62
     0
 10
-21.023317830539352
 20
7.4537121796496706
 30
0.0
 11
-21.023317830539352
 21
7.4537121796496706
 31
0.0
  0
LINE
  5
53DA8
  8
0
 62
     0
 10
-21.089609091275591
 20
7.3874209189134321
 30
0.0
 11
-21.089609091275591
 21
7.3874209189134321
 31
0.0
  0
LINE
  5
53DA9
  8
0
 62
     0
 10
-21.15590035201183
 20
7.3211296581771936
 30
0.0
 11
-21.15590035201183
 21
7.3211296581771936
 31
0.0
  0
LINE
  5
53DAA
  8
0
 62
     0
 10
-21.22219161274807
 20
7.254838397440956
 30
0.0
 11
-21.22219161274807
 21
7.254838397440956
 31
0.0
  0
LINE
  5
53DAB
  8
0
 62
     0
 10
-21.288482873484309
 20
7.1885471367047167
 30
0.0
 11
-21.288482873484309
 21
7.1885471367047167
 31
0.0
  0
LINE
  5
53DAC
  8
0
 62
     0
 10
-21.354774134220548
 20
7.1222558759684791
 30
0.0
 11
-21.354774134220548
 21
7.1222558759684791
 31
0.0
  0
LINE
  5
53DAD
  8
0
 62
     0
 10
-20.393550853545069
 20
8.2160616781164197
 30
0.0
 11
-20.393550853545069
 21
8.2160616781164197
 31
0.0
  0
LINE
  5
53DAE
  8
0
 62
     0
 10
-20.459842114281319
 20
8.1497704173801804
 30
0.0
 11
-20.459842114281319
 21
8.1497704173801804
 31
0.0
  0
LINE
  5
53DAF
  8
0
 62
     0
 10
-20.526133375017551
 20
8.083479156643941
 30
0.0
 11
-20.526133375017551
 21
8.083479156643941
 31
0.0
  0
LINE
  5
53DB0
  8
0
 62
     0
 10
-20.592424635753801
 20
8.0171878959077016
 30
0.0
 11
-20.592424635753801
 21
8.0171878959077016
 31
0.0
  0
LINE
  5
53DB1
  8
0
 62
     0
 10
-20.65871589649003
 20
7.9508966351714623
 30
0.0
 11
-20.65871589649003
 21
7.9508966351714623
 31
0.0
  0
LINE
  5
53DB2
  8
0
 62
     0
 10
-20.725007157226269
 20
7.8846053744352229
 30
0.0
 11
-20.725007157226269
 21
7.8846053744352229
 31
0.0
  0
LINE
  5
53DB3
  8
0
 62
     0
 10
-20.791298417962508
 20
7.8183141136989853
 30
0.0
 11
-20.791298417962508
 21
7.8183141136989853
 31
0.0
  0
LINE
  5
53DB4
  8
0
 62
     0
 10
-20.857589678698751
 20
7.752022852962746
 30
0.0
 11
-20.857589678698751
 21
7.752022852962746
 31
0.0
  0
LINE
  5
53DB5
  8
0
 62
     0
 10
-20.923880939434991
 20
7.6857315922265084
 30
0.0
 11
-20.923880939434991
 21
7.6857315922265084
 31
0.0
  0
LINE
  5
53DB6
  8
0
 62
     0
 10
-20.99017220017123
 20
7.619440331490269
 30
0.0
 11
-20.99017220017123
 21
7.619440331490269
 31
0.0
  0
LINE
  5
53DB7
  8
0
 62
     0
 10
-21.056463460907469
 20
7.5531490707540314
 30
0.0
 11
-21.056463460907469
 21
7.5531490707540314
 31
0.0
  0
LINE
  5
53DB8
  8
0
 62
     0
 10
-21.122754721643709
 20
7.486857810017792
 30
0.0
 11
-21.122754721643709
 21
7.486857810017792
 31
0.0
  0
LINE
  5
53DB9
  8
0
 62
     0
 10
-21.189045982379952
 20
7.4205665492815536
 30
0.0
 11
-21.189045982379952
 21
7.4205665492815536
 31
0.0
  0
ENDBLK
  5
53DBB
  8
0
  0
BLOCK
  8
0
  2
*U4
 70
     1
 10
0.0
 20
0.0
 30
0.0
  3
*U4
  1

  0
SOLID
  5
53DBD
  8
DIM
 10
-28.973846967675531
 20
5.2470704067150526
 30
0.0
 11
-29.194187411598829
 21
5.3723149670072701
 31
0.0
 12
-28.94513740454958
 22
5.3253021485438143
 32
0.0
 13
-28.94513740454958
 23
5.3253021485438143
 33
0.0
  0
POLYLINE
  5
53DBE
  8
DIM
 66
     1
 10
0.0
 20
0.0
 30
0.0
  0
VERTEX
  5
53DBF
  8
DIM
 10
-28.959492186112548
 20
5.2861862776294331
 30
0.0
  0
VERTEX
  5
53DC0
  8
DIM
 10
-26.802338546068061
 20
4.4945518699898912
 30
0.0
  0
VERTEX
  5
53DC1
  8
DIM
 10
-26.363194298890178
 20
4.4945518699898912
 30
0.0
  0
SEQEND
  5
53DC2
  8
DIM
  0
ENDBLK
  5
53DC4
  8
0
  0
BLOCK
  8
0
  2
*U5
 70
     1
 10
0.0
 20
0.0
 30
0.0
  3
*U5
  1

  0
TEXT
  5
53DC6
  8
DIM
 10
-32.280076875674887
 20
5.6609716762909228
 30
0.0
 40
0.375
  1
3 5/8"
  7
SMOOTH
  0
ENDBLK
  5
53DC8
  8
0
  0
BLOCK
  8
0
  2
*U6
 70
     1
 10
0.0
 20
0.0
 30
0.0
  3
*U6
  1

  0
SOLID
  5
53DCA
  8
DIM
 10
-17.974296680378881
 20
7.286066105326741
 30
0.0
 11
-18.174740491449249
 21
7.1309584339668346
 31
0.0
 12
-18.035436671688601
 22
7.3426907104652477
 32
0.0
 13
-18.035436671688601
 23
7.3426907104652477
 33
0.0
  0
POLYLINE
  5
53DCB
  8
DIM
 66
     1
 10
0.0
 20
0.0
 30
0.0
  0
VERTEX
  5
53DCC
  8
DIM
 10
-18.004866676033728
 20
7.3143784078959948
 30
0.0
  0
VERTEX
  5
53DCD
  8
DIM
 10
-15.77457413206605
 20
9.7225199997494585
 30
0.0
  0
VERTEX
  5
53DCE
  8
DIM
 10
-16.777377121629371
 20
9.7225199997494585
 30
0.0
  0
SEQEND
  5
53DCF
  8
DIM
  0
ENDBLK
  5
53DD1
  8
0
  0
BLOCK
  8
0
  2
*U7
 70
     1
 10
0.0
 20
0.0
 30
0.0
  3
*U7
  1

  0
TEXT
  5
53DD3
  8
DIM
 10
-31.37482428715553
 20
8.3079791115509654
 30
0.0
 40
0.375
  1
3/4"
  7
SMOOTH
  0
ENDBLK
  5
53DD5
  8
0
  0
BLOCK
  8
0
  2
*U8
 70
     1
 10
0.0
 20
0.0
 30
0.0
  3
*U8
  1

  0
TEXT
  5
53DD7
  8
DIM
 10
-26.82998135987074
 20
9.0878781326833877
 30
0.0
 40
0.375
  1
1 5/8"
  7
SMOOTH
  0
ENDBLK
  5
53DD9
  8
0
  0
BLOCK
  8
0
  2
*U9
 70
     1
 10
0.0
 20
0.0
 30
0.0
  3
*U9
  1

  0
TEXT
  5
53DDB
  8
DIM
 10
-31.37482428715553
 20
16.700431342528791
 30
0.0
 40
0.375
  1
3/4"
  7
SMOOTH
  0
ENDBLK
  5
53DDD
  8
0
  0
BLOCK
  8
0
  2
*U10
 70
     1
 10
0.0
 20
0.0
 30
0.0
  3
*U10
  1

  0
TEXT
  5
53DDF
  8
DIM
 10
-26.80283139784337
 20
17.238598764226701
 30
0.0
 40
0.375
  1
1 5/8"
  7
SMOOTH
  0
ENDBLK
  5
53DE1
  8
0
  0
BLOCK
  8
0
  2
*U11
 70
     1
 10
0.0
 20
0.0
 30
0.0
  3
*U11
  1

  0
TEXT
  5
53DE3
  8
DIM
 10
-19.515666263076412
 20
16.971856168162429
 30
0.0
 40
0.375
  1
3 5/8"
  7
SMOOTH
  0
ENDBLK
  5
53DE5
  8
0
  0
BLOCK
  8
0
  2
*U12
 70
     1
 10
0.0
 20
0.0
 30
0.0
  3
*U12
  1

  0
TEXT
  5
53DE7
  8
DIM
 10
-29.35642416431623
 20
12.450050235992279
 30
0.0
 40
0.375
  1
2 1/2"
  7
SMOOTH
  0
ENDBLK
  5
53DE9
  8
0
  0
BLOCK
  8
0
  2
*U13
 70
     1
 10
0.0
 20
0.0
 30
0.0
  3
*U13
  1

  0
TEXT
  5
53DEB
  8
DIM
 10
-29.35642416431623
 20
2.6831824154947639
 30
0.0
 40
0.375
  1
2 1/2"
  7
SMOOTH
  0
ENDBLK
  5
53DED
  8
0
  0
ENDSEC
  0
SECTION
  2
ENTITIES
  0
INSERT
  5
53107
  8
0
 66
     1
  2
TITLEBLOCK-2018
 10
-6.0493209687476552
 20
0.455788126607891
 30
0.0
 41
0.8208
 42
0.8208
 43
0.8208
  0
ATTRIB
  5
53109
  8
TITLE2
 10
-12.65933405326652
 20
17.36850266809958
 30
0.0
 40
0.2993204568948501
  1
W1-H THIN BICK
 41
0.8005305039787987
  7
GGATT
  2
DWG1
 70
     0
  0
ATTRIB
  5
5310A
  8
TITLE2
 10
-12.65933405326652
 20
16.86963523994152
 30
0.0
 40
0.2993204568948501
  1
2 1/4" x 3 5/8"
 41
0.8005305039787987
  7
GGATT
  2
DWG2
 70
     0
  0
ATTRIB
  5
5310B
  8
TITLE2
 10
-12.65933405326652
 20
15.872586349656521
 30
0.0
 40
0.2993204568948531
  1

 41
0.8005305039787907
  7
GGATT
  2
PROJ1
 70
     0
  0
ATTRIB
  5
5310C
  8
TITLE2
 10
-12.65933405326652
 20
15.37371892149846
 30
0.0
 40
0.2993204568948531
  1

 41
0.8005305039787907
  7
GGATT
  2
PROJ2
 70
     0
  0
ATTRIB
  5
5310D
  8
TITLE2
 10
-11.99193674159196
 20
14.780931601089071
 30
0.0
 40
0.1995469712632459
  1
1 of 1
 41
0.8005305039787947
  7
GGATT
  2
PAGE
 70
     0
  0
ATTRIB
  5
5310E
  8
TITLE2
 10
-9.8632480844982542
 20
14.780931601089071
 30
0.0
 40
0.1995469712632459
  1
27 MAR 18
 41
0.8005305039787943
  7
GGATT
  2
DATE
 70
     0
  0
ATTRIB
  5
5310F
  8
TITLE2
 10
-11.350999249695199
 20
14.182290687299369
 30
0.0
 40
0.1995469712632474
  1

 41
0.8005305039787886
  7
GGATT
  2
ARCH
 70
     0
  0
ATTRIB
  5
53110
  8
TITLE2
 10
-11.350999249695199
 20
13.583649773509681
 30
0.0
 40
0.1995469712632474
  1

 41
0.8005305039787886
  7
GGATT
  2
CUST
 70
     0
  0
ATTRIB
  5
53111
  8
TITLE2
 10
-11.350999249695199
 20
12.98500885971997
 30
0.0
 40
0.1995469712632474
  1

 41
0.8005305039787886
  7
GGATT
  2
REP
 70
     0
  0
ATTRIB
  5
53112
  8
TITLE2
 10
-11.084760187240541
 20
12.386367945930269
 30
0.0
 40
0.1995469712632474
  1

 41
0.8005305039787886
  7
GGATT
  2
OFFICE
 70
     0
  0
ATTRIB
  5
53113
  8
TITLE2
 10
-11.65952929364979
 20
11.78772703214058
 30
0.0
 40
0.1995469712632474
  1

 41
0.8005305039787959
  7
GGATT
  2
PLANT
 70
     0
  0
ATTRIB
  5
53114
  8
TITLE2
 10
-12.52882181312134
 20
10.860355676208609
 30
0.0
 40
0.2988415441638037
  1

 41
0.800530503978797
  7
GGATT
  2
BRICK
 70
     0
  0
ATTRIB
  5
53115
  8
TITLE2
 10
-11.44366356323788
 20
10.363844608521379
 30
0.0
 40
0.1995469712632474
  1
EXTRUDED
 41
0.8005305039787963
  7
GGATT
  2
PROCESS
 70
     0
  0
ATTRIB
  5
53116
  8
TITLE2
 10
-9.8462291885099358
 20
10.363844608521379
 30
0.0
 40
0.1995469712632474
  1

 41
0.8005305039787959
  7
GGATT
  2
BURN
 70
     0
  0
ATTRIB
  5
53117
  8
TITLE2
 10
-11.65952929364979
 20
9.7652036947316887
 30
0.0
 40
0.1995469712632474
  1
WIRE CUT
 41
0.8005305039787959
  7
GGATT
  2
TEXT
 70
     0
  0
ATTRIB
  5
53118
  8
TITLE2
 10
-10.06209491892186
 20
9.1665627809419927
 30
0.0
 40
0.1995469712632489
  1
2 
 41
0.8005305039787897
  7
GGATT
  2
FACE
 70
     0
  0
ATTRIB
  5
53119
  8
TITLE2
 10
-11.65952929364979
 20
7.9692809533626301
 30
0.0
 40
0.1995469712632482
  1
PLANT OPTION
 41
0.8005305039787929
  7
GGATT
  2
CORING
 70
     0
  0
ATTRIB
  5
5311A
  8
TITLE2
 10
-11.92576835610444
 20
7.3706400395729341
 30
0.0
 40
0.1995469712632482
  1
STD. MOD.
 41
0.8005305039787929
  7
GGATT
  2
SIZE
 70
     0
  0
ATTRIB
  5
5311B
  8
TITLE2
 10
-9.7958558564672096
 20
7.3706400395729341
 30
0.0
 40
0.1995469712632482
  1

 41
0.8005305039787929
  7
GGATT
  2
BOND
 70
     0
  0
ATTRIB
  5
5311C
  8
TITLE2
 10
-10.480506981067711
 20
6.7719991257832461
 30
0.0
 40
0.1995469712632458
  1
C216, TBS, SW
 41
0.8005305039787941
  7
GGATT
  2
ASTM
 70
     0
  0
ATTRIB
  5
5311D
  8
TITLE2
 10
-10.46770009933134
 20
6.1733582119935511
 30
0.0
 40
0.1995469712632459
  1
Y318JJJ1
 41
0.8005305039787943
  7
GGATT
  2
FILE
 70
     0
  0
ATTRIB
  5
5311E
  8
TITLE2
 10
-11.07405931263016
 20
5.5747172982038613
 30
0.0
 40
0.1995469712632459
  1
KEVIN LINDSTROM
 41
0.8005305039787947
  7
GGATT
  2
BY
 70
     0
  0
ATTRIB
  5
5311F
  8
TITLE2
 10
-10.61162929146958
 20
8.5431872950493641
 30
0.0
 40
0.1995469712632474
  1
PLANT OPTION
 41
0.8005305039787959
  7
GGATT
  2
TEXTURE
 70
     0
  0
SEQEND
  5
53108
  8
0
  0
LINE
  5
5325C
  8
OBJ
 10
-29.194187411598829
 20
16.047999143527569
 30
0.0
 11
-29.944187411598829
 21
16.047999143527569
 31
0.0
  0
LINE
  5
5325D
  8
OBJ
 10
-29.069187411598829
 20
15.547999143527569
 30
0.0
 11
-29.194187411598829
 21
15.547999143527569
 31
0.0
  0
LINE
  5
5325E
  8
OBJ
 10
-29.944187411598829
 20
16.047999143527569
 30
0.0
 11
-29.944187411598829
 21
13.797999143527569
 31
0.0
  0
LINE
  5
5325F
  8
OBJ
 10
-29.194187411598829
 20
16.047999143527569
 30
0.0
 11
-29.194187411598829
 21
15.547999143527569
 31
0.0
  0
LINE
  5
53260
  8
OBJ
 10
-29.069187411598829
 20
16.04352914899869
 30
0.0
 11
-29.069187411598829
 21
15.547999143527569
 31
0.0
  0
LINE
  5
53261
  8
OBJ
 10
-29.944187411598829
 20
13.797999143527569
 30
0.0
 11
-27.444187411598829
 21
13.797999143527569
 31
0.0
  0
LINE
  5
53262
  8
OBJ
 10
-27.444187411598829
 20
13.797999143527569
 30
0.0
 11
-27.444187411598829
 21
14.297999143527569
 31
0.0
  0
LINE
  5
53263
  8
OBJ
 10
-20.663891466880749
 20
13.797999143527569
 30
0.0
 11
-17.038891466880749
 21
13.797999143527569
 31
0.0
  0
LINE
  5
53264
  8
OBJ
 10
-20.663891466880749
 20
16.047999143527569
 30
0.0
 11
-20.663891466880749
 21
13.797999143527569
 31
0.0
  0
LINE
  5
53265
  8
OBJ
 10
-17.038891466880749
 20
16.047999143527569
 30
0.0
 11
-20.663891466880749
 21
16.047999143527569
 31
0.0
  0
LINE
  5
53266
  8
OBJ
 10
-17.038891466880749
 20
16.047999143527569
 30
0.0
 11
-17.038891466880749
 21
13.797999143527569
 31
0.0
  0
LINE
  5
53267
  8
OBJ
 10
-27.444187411598829
 20
4.0311313230300581
 30
0.0
 11
-27.444187411598829
 21
7.6561313230300581
 31
0.0
  0
LINE
  5
53268
  8
OBJ
 10
-29.944187411598829
 20
4.0311313230300581
 30
0.0
 11
-27.444187411598829
 21
4.0311313230300581
 31
0.0
  0
LINE
  5
53269
  8
OBJ
 10
-29.944187411598829
 20
7.6561313230300581
 30
0.0
 11
-29.944187411598829
 21
4.0311313230300581
 31
0.0
  0
LINE
  5
5326A
  8
OBJ
 10
-29.194187411598829
 20
7.6561313230300581
 30
0.0
 11
-29.194187411598829
 21
4.0311313230300581
 31
0.0
  0
LINE
  5
5326B
  8
OBJ
 10
-29.069187411598829
 20
7.6561313230300581
 30
0.0
 11
-29.069187411598829
 21
4.0311313230300581
 31
0.0
  0
LINE
  5
5326C
  8
OBJ
 10
-29.944187411598829
 20
7.6561313230300581
 30
0.0
 11
-27.444187411598829
 21
7.6561313230300581
 31
0.0
  0
LINE
  5
5326D
  8
OBJ
 10
-18.39450645867705
 20
3.3163056609942729
 30
0.0
 11
-18.39450645867705
 21
3.8163056609942738
 31
0.0
  0
LINE
  5
5326E
  8
OBJ
 10
-21.696228310605221
 20
5.7225556609942689
 30
0.0
 11
-21.696228310605221
 21
5.2225556609942707
 31
0.0
  0
LINE
  5
5326F
  8
OBJ
 10
-21.696228310605221
 20
5.2225556609942707
 30
0.0
 11
-18.39450645867705
 21
3.3163056609942698
 31
0.0
  0
LINE
  5
53270
  8
OBJ
 10
-18.39450645867705
 20
3.3163056609942698
 30
0.0
 11
-16.229442949215951
 21
4.5663056609942698
 31
0.0
  0
LINE
  5
53271
  8
OBJ
 10
-16.229442949215951
 20
4.5663056609942716
 30
0.0
 11
-16.229442949215962
 21
6.8163056609942698
 31
0.0
  0
INSERT
  5
53272
  8
OBJ
  6
CONTINUOUS
  2
*X3
 10
0.0
 20
0.0
 30
0.0
1001
ACAD
1000
HATCH
1002
{
1070
    19
1000
DOTS
1040
1.5
1040
0.7853981633974483
1000
R14_HATCH_DATA
1000
53272
1011
1.0
1021
0.0
1031
0.0
1021
0.0
1031
0.0
1011
0.0
1021
0.0
1031
0.0
1021
1.0
1031
0.0
1011
0.0
1021
0.0
1031
0.0
1021
0.0
1031
1.0
1040
0.0
1010
0.0
1020
0.0
1030
1.0
1000
DOTS
1070
     0
1070
     0
1071
        2
1071
        7
1070
     1
1070
     1
1071
        7
1040
-16.98721517752735
1040
6.3778442998633551
1040
0.0
1040
-16.987215177527339
1040
6.3788056609942743
1040
0.0
1040
-20.28813068022054
1040
8.2845901150464023
1040
0.2644823429875718
1040
-21.696228310605221
1040
5.7225556609942689
1040
0.0
1040
-21.696228310605221
1040
5.2225556609942707
1040
0.0
1040
-18.39450645867705
1040
3.3163056609942712
1040
0.0
1040
-18.39450645867705
1040
3.8163056609942738
1040
-0.264396708548052
1071
        0
1071
        7
1070
     0
1070
     1
1071
        4
1040
-19.531164801144129
1040
8.7225556609942636
1040
-20.180683853982451
1040
8.3475556609942672
1040
-16.87896200205428
1040
6.4413056609942698
1040
-16.229442949215962
1040
6.8163056609942627
1071
        0
1070
     0
1070
     1
1040
0.7853981633974483
1040
1.5
1070
     0
1070
     1
1040
0.7853981633974483
1040
-0.2410075897284827
1040
-1.0647148249570151
1040
-0.0331456303681194
1040
0.0994368911043583
1070
     2
1040
0.0
1040
-0.09375
1040
0.0088100603039824
1071
        2
1040
-20.208534137510551
1040
6.1103765307379367
1040
0.0
1040
-17.784317879768061
1040
7.2468742833840727
1040
0.0
1002
}
  0
LINE
  5
53273
  8
OBJ
 10
-16.229442949215962
 20
6.8163056609942654
 30
0.0
 11
-16.87896200205428
 21
6.4413056609942698
 31
0.0
  0
LINE
  5
53274
  8
OBJ
 10
-20.180683853982451
 20
8.3475556609942707
 30
0.0
 11
-19.531164801144129
 21
8.7225556609942636
 31
0.0
  0
LINE
  5
53275
  8
OBJ
 10
-19.53116480114414
 20
8.7225556609942672
 30
0.0
 11
-16.229442949215962
 21
6.8163056609942627
 31
0.0
  0
LINE
  5
53276
  8
OBJ
 10
-29.194187411598829
 20
4.0311313230300581
 30
0.0
 11
-29.194187411598829
 21
7.6561313230300581
 31
0.0
  0
LINE
  5
53277
  8
OBJ
 10
-17.038891466880749
 20
14.297999143527569
 30
0.0
 11
-20.663891466880749
 21
14.297999143527569
 31
0.0
  0
ARC
  5
53278
  8
OBJ
 10
-29.194187411598829
 20
14.297999143527569
 30
0.0
 40
1.75
 50
0.0
 51
85.903956241847354
  0
ARC
  5
53279
  8
OBJ
 10
-15.43811653607977
 20
3.8594331433532401
 30
0.0
 40
2.9567044752848299
 50
121.59606786320769
 51
180.83576507973271
  0
ARC
  5
5327A
  8
OBJ
 10
-18.739838388007939
 20
5.7656831433532361
 30
0.0
 40
2.9567044752848299
 50
121.57772460736879
 51
180.83576507973271
  0
LINE
  5
5327B
  8
DIM
 10
-30.131687411598829
 20
16.047999143527569
 30
0.0
 11
-31.78790505913928
 21
16.047999143527569
 31
0.0
  0
LINE
  5
5327C
  8
DIM
 10
-30.131687411598829
 20
13.797999143527569
 30
0.0
 11
-31.78790505913928
 21
13.797999143527569
 31
0.0
  0
LINE
  5
5327D
  8
DIM
 10
-31.607905059139281
 20
15.797999143527569
 30
0.0
 11
-31.607905059139281
 21
15.200499143527569
 31
0.0
  0
LINE
  5
5327E
  8
DIM
 10
-31.607905059139281
 20
14.047999143527569
 30
0.0
 11
-31.607905059139281
 21
14.64549914352758
 31
0.0
  0
SOLID
  5
5327F
  8
DIM
 10
-31.649571725805959
 20
15.797999143527569
 30
0.0
 11
-31.56623839247262
 21
15.797999143527569
 31
0.0
 12
-31.607905059139281
 22
16.047999143527569
 32
0.0
 13
-31.607905059139281
 23
16.047999143527569
 33
0.0
  0
SOLID
  5
53280
  8
DIM
 10
-31.649571725805959
 20
14.047999143527569
 30
0.0
 11
-31.56623839247262
 21
14.047999143527569
 31
0.0
 12
-31.607905059139281
 22
13.797999143527569
 32
0.0
 13
-31.607905059139281
 23
13.797999143527569
 33
0.0
  0
TEXT
  5
53281
  8
DIM
 10
-32.280714162400152
 20
14.735499143527569
 30
0.0
 40
0.375
  1
2 1/4"
  7
SMOOTH
 72
     1
 11
-31.607905059139281
 21
14.922999143527569
 31
0.0
 73
     2
  0
LINE
  5
53282
  8
DIM
 10
-27.256687411598829
 20
14.297999143527569
 30
0.0
 11
-25.781096891558999
 21
14.297999143527569
 31
0.0
  0
LINE
  5
53283
  8
DIM
 10
-28.362678993120699
 20
16.047999143527569
 30
0.0
 11
-25.781096891558999
 21
16.047999143527569
 31
0.0
  0
LINE
  5
53284
  8
DIM
 10
-25.961096891558999
 20
14.547999143527569
 30
0.0
 11
-25.961096891558999
 21
14.89549914352758
 31
0.0
  0
LINE
  5
53285
  8
DIM
 10
-25.961096891558999
 20
15.797999143527569
 30
0.0
 11
-25.961096891558999
 21
15.450499143527569
 31
0.0
  0
SOLID
  5
53286
  8
DIM
 10
-26.002763558225659
 20
14.547999143527569
 30
0.0
 11
-25.919430224892331
 21
14.547999143527569
 31
0.0
 12
-25.961096891558999
 22
14.297999143527569
 32
0.0
 13
-25.961096891558999
 23
14.297999143527569
 33
0.0
  0
SOLID
  5
53287
  8
DIM
 10
-26.002763558225659
 20
15.797999143527569
 30
0.0
 11
-25.919430224892331
 21
15.797999143527569
 31
0.0
 12
-25.961096891558999
 22
16.047999143527569
 32
0.0
 13
-25.961096891558999
 23
16.047999143527569
 33
0.0
  0
TEXT
  5
53288
  8
DIM
 10
-26.63390599481987
 20
14.985499143527569
 30
0.0
 40
0.375
  1
1 3/4"
  7
SMOOTH
 72
     1
 11
-25.961096891558999
 21
15.172999143527569
 31
0.0
 73
     2
  0
LINE
  5
53289
  8
DIM
 10
-27.256687411598829
 20
13.797999143527569
 30
0.0
 11
-25.781096891558999
 21
13.797999143527569
 31
0.0
  0
LINE
  5
5328A
  8
DIM
 10
-25.961096891558999
 20
13.54799914352758
 30
0.0
 11
-25.961096891558999
 21
13.297999143527569
 31
0.0
  0
LINE
  5
5328B
  8
DIM
 10
-25.961096891558999
 20
13.297999143527569
 30
0.0
 11
-25.711096891558999
 21
13.297999143527569
 31
0.0
  0
SOLID
  5
5328C
  8
DIM
 10
-26.002763558225659
 20
13.54799914352758
 30
0.0
 11
-25.919430224892331
 21
13.54799914352758
 31
0.0
 12
-25.961096891558999
 22
13.797999143527569
 32
0.0
 13
-25.961096891558999
 23
13.797999143527569
 33
0.0
  0
TEXT
  5
5328D
  8
DIM
 10
-25.504916282086949
 20
13.110499143527569
 30
0.0
 40
0.375
  1
1/2"
  7
SMOOTH
 72
     1
 11
-25.049668320130419
 21
13.297999143527569
 31
0.0
 73
     2
  0
LINE
  5
5328E
  8
DIM
 10
-20.851391466880759
 20
16.047999143527569
 30
0.0
 11
-22.185368072629899
 21
16.047999143527569
 31
0.0
  0
LINE
  5
5328F
  8
DIM
 10
-20.851391466880749
 20
13.797999143527569
 30
0.0
 11
-22.185368072629899
 21
13.797999143527569
 31
0.0
  0
LINE
  5
53290
  8
DIM
 10
-22.00536807262991
 20
15.797999143527569
 30
0.0
 11
-22.00536807262991
 21
15.200499143527569
 31
0.0
  0
LINE
  5
53291
  8
DIM
 10
-22.00536807262991
 20
14.047999143527569
 30
0.0
 11
-22.00536807262991
 21
14.64549914352758
 31
0.0
  0
SOLID
  5
53292
  8
DIM
 10
-22.047034739296571
 20
15.797999143527569
 30
0.0
 11
-21.963701405963238
 21
15.797999143527569
 31
0.0
 12
-22.00536807262991
 22
16.047999143527569
 32
0.0
 13
-22.00536807262991
 23
16.047999143527569
 33
0.0
  0
SOLID
  5
53293
  8
DIM
 10
-22.047034739296571
 20
14.047999143527569
 30
0.0
 11
-21.963701405963238
 21
14.047999143527569
 31
0.0
 12
-22.00536807262991
 22
13.797999143527569
 32
0.0
 13
-22.00536807262991
 23
13.797999143527569
 33
0.0
  0
TEXT
  5
53294
  8
DIM
 10
-22.678177175890781
 20
14.735499143527569
 30
0.0
 40
0.375
  1
2 1/4"
  7
SMOOTH
 72
     1
 11
-22.00536807262991
 21
14.922999143527569
 31
0.0
 73
     2
  0
TEXT
  5
53295
  8
DIM
 10
-15.18728938072416
 20
13.110499143527569
 30
0.0
 40
0.375
  1
1/2"
  7
SMOOTH
 72
     1
 11
-14.732041418767629
 21
13.297999143527569
 31
0.0
 73
     2
  0
SOLID
  5
53296
  8
DIM
 10
-15.68513665686287
 20
13.54799914352758
 30
0.0
 11
-15.601803323529539
 21
13.54799914352758
 31
0.0
 12
-15.643469990196211
 22
13.797999143527569
 32
0.0
 13
-15.643469990196211
 23
13.797999143527569
 33
0.0
  0
LINE
  5
53297
  8
DIM
 10
-15.6434699901962
 20
13.297999143527569
 30
0.0
 11
-15.3934699901962
 21
13.297999143527569
 31
0.0
  0
LINE
  5
53298
  8
DIM
 10
-15.643469990196211
 20
13.54799914352758
 30
0.0
 11
-15.643469990196211
 21
13.297999143527569
 31
0.0
  0
LINE
  5
53299
  8
DIM
 10
-16.851391466880749
 20
13.797999143527569
 30
0.0
 11
-15.4634699901962
 21
13.797999143527569
 31
0.0
  0
TEXT
  5
5329A
  8
DIM
 10
-16.31627909345708
 20
14.985499143527569
 30
0.0
 40
0.375
  1
1 3/4"
  7
SMOOTH
 72
     1
 11
-15.643469990196211
 21
15.172999143527569
 31
0.0
 73
     2
  0
SOLID
  5
5329B
  8
DIM
 10
-15.68513665686287
 20
15.797999143527569
 30
0.0
 11
-15.601803323529539
 21
15.797999143527569
 31
0.0
 12
-15.643469990196211
 22
16.047999143527569
 32
0.0
 13
-15.643469990196211
 23
16.047999143527569
 33
0.0
  0
SOLID
  5
5329C
  8
DIM
 10
-15.68513665686287
 20
14.547999143527569
 30
0.0
 11
-15.601803323529539
 21
14.547999143527569
 31
0.0
 12
-15.643469990196211
 22
14.297999143527569
 32
0.0
 13
-15.643469990196211
 23
14.297999143527569
 33
0.0
  0
LINE
  5
5329D
  8
DIM
 10
-15.643469990196211
 20
15.797999143527569
 30
0.0
 11
-15.643469990196211
 21
15.450499143527569
 31
0.0
  0
LINE
  5
5329E
  8
DIM
 10
-15.643469990196211
 20
14.547999143527569
 30
0.0
 11
-15.643469990196211
 21
14.89549914352758
 31
0.0
  0
LINE
  5
5329F
  8
DIM
 10
-16.851391466880749
 20
16.047999143527569
 30
0.0
 11
-15.4634699901962
 21
16.047999143527569
 31
0.0
  0
LINE
  5
532A0
  8
DIM
 10
-16.851391466880749
 20
14.297999143527569
 30
0.0
 11
-15.4634699901962
 21
14.297999143527569
 31
0.0
  0
TEXT
  5
532A1
  8
DIM
 10
-30.264055441435261
 20
14.505031993701561
 30
0.0
 40
0.3125
  1
1 3/4"R
  7
SMOOTH
 72
     1
 11
-29.546388152033082
 21
14.661281993701561
 31
0.0
 73
     2
  0
LINE
  5
532A2
  8
CONTOURS
 10
-20.663891466880749
 20
14.297999143527569
 30
0.0
 11
-17.038891466880749
 21
14.297999143527569
 31
0.0
  0
LINE
  5
532A3
  8
CONTOURS
 10
-20.663891466880749
 20
14.88133247102758
 30
0.0
 11
-17.038891466880749
 21
14.88133247102758
 31
0.0
  0
LINE
  5
532A4
  8
CONTOURS
 10
-20.663891466880749
 20
15.27022135991607
 30
0.0
 11
-17.038891466880749
 21
15.27022135991607
 31
0.0
  0
LINE
  5
532A5
  8
CONTOURS
 10
-20.663891466880749
 20
15.52948061891607
 30
0.0
 11
-17.038891466880749
 21
15.52948061891607
 31
0.0
  0
LINE
  5
532A6
  8
CONTOURS
 10
-20.663891466880749
 20
15.70232012491608
 30
0.0
 11
-17.038891466880749
 21
15.70232012491608
 31
0.0
  0
LINE
  5
532A7
  8
CONTOURS
 10
-20.663891466880749
 20
15.817546461666071
 30
0.0
 11
-17.038891466880749
 21
15.817546461666071
 31
0.0
  0
LINE
  5
532A8
  8
CONTOURS
 10
-20.663891466880749
 20
15.894364020666069
 30
0.0
 11
-17.038891466880749
 21
15.894364020666069
 31
0.0
  0
LINE
  5
532A9
  8
CONTOURS
 10
-20.663891466880749
 20
15.94754540766607
 30
0.0
 11
-17.038891466880749
 21
15.94754540766607
 31
0.0
  0
LINE
  5
532AA
  8
CONTOURS
 10
-20.663891466880749
 20
15.981686544416069
 30
0.0
 11
-17.038891466880749
 21
15.981686544416069
 31
0.0
  0
LINE
  5
532AB
  8
CONTOURS
 10
-20.663891466880749
 20
16.014842843971831
 30
0.0
 11
-17.038891466880749
 21
16.014842843971831
 31
0.0
  0
LINE
  5
532AC
  8
CONTOURS
 10
-29.194187411598829
 20
7.6561313230300581
 30
0.0
 11
-29.194187411598829
 21
4.0311313230300581
 31
0.0
  0
LINE
  5
532AD
  8
CONTOURS
 10
-28.610854084098829
 20
7.6561313230300581
 30
0.0
 11
-28.610854084098829
 21
4.0311313230300581
 31
0.0
  0
LINE
  5
532AE
  8
CONTOURS
 10
-28.221965195210341
 20
7.6561313230300581
 30
0.0
 11
-28.221965195210341
 21
4.0311313230300581
 31
0.0
  0
LINE
  5
532AF
  8
CONTOURS
 10
-27.96270593621033
 20
7.6561313230300581
 30
0.0
 11
-27.96270593621033
 21
4.0311313230300581
 31
0.0
  0
LINE
  5
532B0
  8
CONTOURS
 10
-27.789866430210331
 20
7.6561313230300581
 30
0.0
 11
-27.789866430210331
 21
4.0311313230300581
 31
0.0
  0
LINE
  5
532B1
  8
CONTOURS
 10
-27.67464009346034
 20
7.6561313230300581
 30
0.0
 11
-27.67464009346034
 21
4.0311313230300581
 31
0.0
  0
LINE
  5
532B2
  8
CONTOURS
 10
-27.597822534460331
 20
7.6561313230300581
 30
0.0
 11
-27.597822534460331
 21
4.0311313230300581
 31
0.0
  0
LINE
  5
532B3
  8
CONTOURS
 10
-27.544641147460339
 20
7.6561313230300581
 30
0.0
 11
-27.544641147460339
 21
4.0311313230300581
 31
0.0
  0
LINE
  5
532B4
  8
CONTOURS
 10
-27.510500010710341
 20
7.6561313230300581
 30
0.0
 11
-27.510500010710341
 21
4.0311313230300581
 31
0.0
  0
LINE
  5
532B5
  8
CONTOURS
 10
-27.477343711154582
 20
7.6561313230300581
 30
0.0
 11
-27.477343711154589
 21
4.0311313230300581
 31
0.0
  0
LINE
  5
532BE
  8
OBJ
 10
-16.87896200205428
 20
5.9413056609942698
 30
0.0
 11
-16.878962002054291
 21
6.4413056609942769
 31
0.0
  0
LINE
  5
532BF
  8
OBJ
 10
-16.987215177527339
 20
5.8788056609942698
 30
0.0
 11
-16.98721517752735
 21
6.3788056609942769
 31
0.0
  0
LINE
  5
532C0
  8
OBJ
 10
-16.87896200205428
 20
5.9413056609942672
 30
0.0
 11
-16.987215177527339
 21
5.8788056609942698
 31
0.0
  0
LINE
  5
532C1
  8
OBJ
 10
-20.180683853982469
 20
8.3475556609942814
 30
0.0
 11
-16.87896200205428
 21
6.4413056609942698
 31
0.0
  0
LINE
  5
532C2
  8
OBJ
 10
-16.987215177527339
 20
6.0038056609942698
 30
0.0
 11
-16.878962002054291
 21
5.9413056609942743
 31
0.0
  0
LINE
  5
532C3
  8
OBJ
 10
-20.288937029455521
 20
8.2850556609942778
 30
0.0
 11
-16.987215177527339
 21
6.3788056609942698
 31
0.0
  0
LINE
  5
532C4
  8
OBJ
 10
-20.180683853982469
 20
8.2225556609942707
 30
0.0
 11
-20.180683853982469
 21
8.3475556609942814
 31
0.0
  0
TEXT
  5
532C5
  8
DIM
 10
-21.440149218401679
 20
9.5348721642811256
 30
0.0
 40
0.375
  1
1/8" x 1/2" NOTCH
  7
SMOOTH
 72
     1
 11
-19.254347587966901
 21
9.7223721642811256
 31
0.0
 73
     2
  0
TEXT
  5
532C6
  8
DIM
 10
-26.2784761300653
 20
4.3479144764275679
 30
0.0
 40
0.375
  1
1/8" x 1/2" NOTCH
  7
SMOOTH
 72
     1
 11
-24.092674499630519
 21
4.5354144764275679
 31
0.0
 73
     2
  0
INSERT
  5
532C7
  8
DIM
  2
*U4
 10
0.0
 20
0.0
 30
0.0
1001
ACAD
1000
DSTYLE
1002
{
1070
   147
1040
0.09375
1070
    77
1070
     0
1002
}
  0
LINE
  5
532C8
  8
DIM
 10
-30.131687411598829
 20
4.0311313230300581
 30
0.0
 11
-31.795802079479241
 21
4.0311313230300589
 31
0.0
  0
LINE
  5
532C9
  8
DIM
 10
-30.131687411598829
 20
7.6561313230300581
 30
0.0
 11
-31.795802079479241
 21
7.6561313230300589
 31
0.0
  0
LINE
  5
532CA
  8
DIM
 10
-31.615802079479241
 20
4.2811313230300589
 30
0.0
 11
-31.615802079479241
 21
5.4641670373157742
 31
0.0
  0
LINE
  5
532CB
  8
DIM
 10
-31.615802079479241
 20
7.4061313230300589
 30
0.0
 11
-31.615802079479241
 21
6.2230956087443454
 31
0.0
  0
SOLID
  5
532CC
  8
DIM
 10
-31.657468746145909
 20
4.2811313230300589
 30
0.0
 11
-31.57413541281257
 21
4.2811313230300589
 31
0.0
 12
-31.615802079479241
 22
4.0311313230300589
 32
0.0
 13
-31.615802079479241
 23
4.0311313230300589
 33
0.0
  0
SOLID
  5
532CD
  8
DIM
 10
-31.657468746145909
 20
7.4061313230300589
 30
0.0
 11
-31.57413541281257
 21
7.4061313230300589
 31
0.0
 12
-31.615802079479241
 22
7.6561313230300589
 32
0.0
 13
-31.615802079479241
 23
7.6561313230300589
 33
0.0
  0
INSERT
  5
532CE
  8
DIM
  2
*U5
 10
0.0
 20
0.0
 30
0.0
  0
INSERT
  5
532DD
  8
DIM
  2
*U6
 10
0.0
 20
0.0
 30
0.0
1001
ACAD
1000
DSTYLE
1002
{
1070
   147
1040
0.09375
1070
    77
1070
     0
1002
}
  0
LINE
  5
532DE
  8
DIM
 10
-29.194187411598829
 20
7.8436313230300581
 30
0.0
 11
-29.194187411598829
 21
8.6706387582900941
 31
0.0
  0
LINE
  5
532DF
  8
DIM
 10
-29.944187411598829
 20
7.8436313230300581
 30
0.0
 11
-29.944187411598829
 21
8.6706387582900941
 31
0.0
  0
LINE
  5
532E0
  8
DIM
 10
-28.944187411598829
 20
8.4906387582900962
 30
0.0
 11
-28.694187411598829
 21
8.4906387582900962
 31
0.0
  0
LINE
  5
532E1
  8
DIM
 10
-30.19418741159884
 20
8.4906387582900962
 30
0.0
 11
-30.444187411598829
 21
8.4906387582900962
 31
0.0
  0
SOLID
  5
532E2
  8
DIM
 10
-28.944187411598829
 20
8.5323054249567623
 30
0.0
 11
-28.944187411598829
 21
8.4489720916234301
 31
0.0
 12
-29.194187411598829
 22
8.4906387582900962
 32
0.0
 13
-29.194187411598829
 23
8.4906387582900962
 33
0.0
  0
SOLID
  5
532E3
  8
DIM
 10
-30.19418741159884
 20
8.5323054249567623
 30
0.0
 11
-30.19418741159884
 21
8.4489720916234301
 31
0.0
 12
-29.944187411598829
 22
8.4906387582900962
 32
0.0
 13
-29.944187411598829
 23
8.4906387582900962
 33
0.0
  0
INSERT
  5
532E4
  8
DIM
  2
*U7
 10
0.0
 20
0.0
 30
0.0
  0
LINE
  5
532E5
  8
DIM
 10
-29.069187411598829
 20
7.8436313230300581
 30
0.0
 11
-29.069187411598829
 21
9.4505377794225183
 31
0.0
  0
LINE
  5
532E6
  8
DIM
 10
-27.444187411598829
 20
7.8436313230300581
 30
0.0
 11
-27.444187411598829
 21
9.4505377794225183
 31
0.0
  0
LINE
  5
532E7
  8
DIM
 10
-29.319187411598829
 20
9.2705377794225186
 30
0.0
 11
-29.569187411598829
 21
9.2705377794225186
 31
0.0
  0
LINE
  5
532E8
  8
DIM
 10
-27.194187411598829
 20
9.2705377794225186
 30
0.0
 11
-26.944187411598829
 21
9.2705377794225186
 31
0.0
  0
SOLID
  5
532E9
  8
DIM
 10
-29.319187411598829
 20
9.3122044460891846
 30
0.0
 11
-29.319187411598829
 21
9.2288711127558525
 31
0.0
 12
-29.069187411598829
 22
9.2705377794225186
 32
0.0
 13
-29.069187411598829
 23
9.2705377794225186
 33
0.0
  0
SOLID
  5
532EA
  8
DIM
 10
-27.194187411598829
 20
9.3122044460891846
 30
0.0
 11
-27.194187411598829
 21
9.2288711127558525
 31
0.0
 12
-27.444187411598829
 22
9.2705377794225186
 32
0.0
 13
-27.444187411598829
 23
9.2705377794225186
 33
0.0
  0
INSERT
  5
532EB
  8
DIM
  2
*U8
 10
0.0
 20
0.0
 30
0.0
  0
LINE
  5
532EC
  8
DIM
 10
-29.194187411598829
 20
16.235499143527569
 30
0.0
 11
-29.194187411598829
 21
17.06309098926792
 31
0.0
  0
LINE
  5
532ED
  8
DIM
 10
-29.944187411598829
 20
16.235499143527569
 30
0.0
 11
-29.944187411598829
 21
17.06309098926792
 31
0.0
  0
LINE
  5
532EE
  8
DIM
 10
-28.944187411598829
 20
16.88309098926792
 30
0.0
 11
-28.694187411598829
 21
16.88309098926792
 31
0.0
  0
LINE
  5
532EF
  8
DIM
 10
-30.194187411598829
 20
16.88309098926792
 30
0.0
 11
-30.444187411598829
 21
16.88309098926792
 31
0.0
  0
SOLID
  5
532F0
  8
DIM
 10
-28.944187411598829
 20
16.924757655934581
 30
0.0
 11
-28.944187411598829
 21
16.841424322601249
 31
0.0
 12
-29.194187411598829
 22
16.88309098926792
 32
0.0
 13
-29.194187411598829
 23
16.88309098926792
 33
0.0
  0
SOLID
  5
532F1
  8
DIM
 10
-30.194187411598829
 20
16.924757655934581
 30
0.0
 11
-30.194187411598829
 21
16.841424322601249
 31
0.0
 12
-29.944187411598829
 22
16.88309098926792
 32
0.0
 13
-29.944187411598829
 23
16.88309098926792
 33
0.0
  0
INSERT
  5
532F2
  8
DIM
  2
*U9
 10
0.0
 20
0.0
 30
0.0
  0
LINE
  5
532F3
  8
DIM
 10
-29.069187411598829
 20
16.235499143527569
 30
0.0
 11
-29.069187411598829
 21
17.60125841096583
 31
0.0
  0
LINE
  5
532F4
  8
DIM
 10
-27.444187411598829
 20
15.129507562005699
 30
0.0
 11
-27.444187411598829
 21
17.60125841096583
 31
0.0
  0
LINE
  5
532F5
  8
DIM
 10
-29.319187411598829
 20
17.42125841096583
 30
0.0
 11
-29.569187411598829
 21
17.42125841096583
 31
0.0
  0
LINE
  5
532F6
  8
DIM
 10
-27.194187411598829
 20
17.42125841096583
 30
0.0
 11
-26.944187411598829
 21
17.42125841096583
 31
0.0
  0
SOLID
  5
532F7
  8
DIM
 10
-29.319187411598829
 20
17.462925077632502
 30
0.0
 11
-29.319187411598829
 21
17.379591744299159
 31
0.0
 12
-29.069187411598829
 22
17.42125841096583
 32
0.0
 13
-29.069187411598829
 23
17.42125841096583
 33
0.0
  0
SOLID
  5
532F8
  8
DIM
 10
-27.194187411598829
 20
17.462925077632502
 30
0.0
 11
-27.194187411598829
 21
17.379591744299159
 31
0.0
 12
-27.444187411598829
 22
17.42125841096583
 32
0.0
 13
-27.444187411598829
 23
17.42125841096583
 33
0.0
  0
INSERT
  5
532F9
  8
DIM
  2
*U10
 10
0.0
 20
0.0
 30
0.0
  0
LINE
  5
532FA
  8
DIM
 10
-20.663891466880749
 20
16.235499143527569
 30
0.0
 11
-20.663891466880749
 21
17.334515814901561
 31
0.0
  0
LINE
  5
532FB
  8
DIM
 10
-17.038891466880749
 20
16.235499143527569
 30
0.0
 11
-17.038891466880749
 21
17.334515814901561
 31
0.0
  0
LINE
  5
532FC
  8
DIM
 10
-20.413891466880759
 20
17.154515814901561
 30
0.0
 11
-19.65408338264163
 21
17.154515814901561
 31
0.0
  0
LINE
  5
532FD
  8
DIM
 10
-17.288891466880749
 20
17.154515814901561
 30
0.0
 11
-18.048699551119881
 21
17.154515814901561
 31
0.0
  0
SOLID
  5
532FE
  8
DIM
 10
-20.413891466880759
 20
17.196182481568218
 30
0.0
 11
-20.413891466880759
 21
17.11284914823489
 31
0.0
 12
-20.663891466880749
 22
17.154515814901561
 32
0.0
 13
-20.663891466880749
 23
17.154515814901561
 33
0.0
  0
SOLID
  5
532FF
  8
DIM
 10
-17.288891466880749
 20
17.196182481568218
 30
0.0
 11
-17.288891466880749
 21
17.11284914823489
 31
0.0
 12
-17.038891466880749
 22
17.154515814901561
 32
0.0
 13
-17.038891466880749
 23
17.154515814901561
 33
0.0
  0
INSERT
  5
53300
  8
DIM
  2
*U11
 10
0.0
 20
0.0
 30
0.0
  0
SOLID
  5
53303
  8
DIM
 10
-28.004313912973512
 20
15.206056727489649
 30
0.0
 11
-27.810197297179471
 21
15.369013318592261
 31
0.0
 12
-27.940970336627039
 22
15.15190845161605
 32
0.0
 13
-27.940970336627039
 23
15.15190845161605
 33
0.0
1001
ACAD
1000
DSTYLE
1002
{
1070
   147
1040
0.09375
1070
    77
1070
     0
1002
}
  0
LINE
  5
53305
  8
DIM
 10
-27.97264212480027
 20
15.178982589552851
 30
0.0
 11
-28.41105541764151
 21
14.666119244628961
 31
0.0
1001
ACAD
1000
DSTYLE
1002
{
1070
   147
1040
0.09375
1070
    77
1070
     0
1002
}
  0
LINE
  5
53306
  8
DIM
 10
-28.41105541764151
 20
14.666119244628961
 30
0.0
 11
-28.725963867102671
 21
14.666119244628961
 31
0.0
1001
ACAD
1000
DSTYLE
1002
{
1070
   147
1040
0.09375
1070
    77
1070
     0
1002
}
  0
LINE
  5
53477
  8
DIM
 10
-27.444187411598829
 20
13.610499143527569
 30
0.0
 11
-27.444187411598829
 21
12.45270988273141
 31
0.0
  0
LINE
  5
53478
  8
DIM
 10
-29.944187411598829
 20
13.610499143527569
 30
0.0
 11
-29.944187411598829
 21
12.45270988273141
 31
0.0
  0
LINE
  5
53479
  8
DIM
 10
-27.69418741159884
 20
12.63270988273141
 30
0.0
 11
-27.889457452359711
 21
12.63270988273141
 31
0.0
  0
LINE
  5
5347A
  8
DIM
 10
-29.694187411598829
 20
12.63270988273141
 30
0.0
 11
-29.498917370837962
 21
12.63270988273141
 31
0.0
  0
SOLID
  5
5347B
  8
DIM
 10
-27.69418741159884
 20
12.67437654939808
 30
0.0
 11
-27.69418741159884
 21
12.59104321606474
 31
0.0
 12
-27.444187411598829
 22
12.63270988273141
 32
0.0
 13
-27.444187411598829
 23
12.63270988273141
 33
0.0
  0
SOLID
  5
5347C
  8
DIM
 10
-29.694187411598829
 20
12.67437654939808
 30
0.0
 11
-29.694187411598829
 21
12.59104321606474
 31
0.0
 12
-29.944187411598829
 22
12.63270988273141
 32
0.0
 13
-29.944187411598829
 23
12.63270988273141
 33
0.0
  0
INSERT
  5
5347D
  8
DIM
  2
*U12
 10
0.0
 20
0.0
 30
0.0
  0
LINE
  5
5347E
  8
DIM
 10
-27.444187411598829
 20
3.8436313230300589
 30
0.0
 11
-27.444187411598829
 21
2.685842062233895
 31
0.0
  0
LINE
  5
5347F
  8
DIM
 10
-29.944187411598829
 20
3.8436313230300589
 30
0.0
 11
-29.944187411598829
 21
2.685842062233895
 31
0.0
  0
LINE
  5
53480
  8
DIM
 10
-27.69418741159884
 20
2.8658420622338951
 30
0.0
 11
-27.889457452359711
 21
2.8658420622338951
 31
0.0
  0
LINE
  5
53481
  8
DIM
 10
-29.694187411598829
 20
2.8658420622338951
 30
0.0
 11
-29.498917370837962
 21
2.8658420622338951
 31
0.0
  0
SOLID
  5
53482
  8
DIM
 10
-27.69418741159884
 20
2.9075087289005608
 30
0.0
 11
-27.69418741159884
 21
2.8241753955672291
 31
0.0
 12
-27.444187411598829
 22
2.8658420622338951
 32
0.0
 13
-27.444187411598829
 23
2.8658420622338951
 33
0.0
  0
SOLID
  5
53483
  8
DIM
 10
-29.694187411598829
 20
2.9075087289005608
 30
0.0
 11
-29.694187411598829
 21
2.8241753955672291
 31
0.0
 12
-29.944187411598829
 22
2.8658420622338951
 32
0.0
 13
-29.944187411598829
 23
2.8658420622338951
 33
0.0
  0
INSERT
  5
53484
  8
DIM
  2
*U13
 10
0.0
 20
0.0
 30
0.0
  0
ENDSEC
  0
EOF
