  0
SECTION
  2
HEADER
  9
$ACADVER
  1
AC1009
  9
$INSBASE
 10
0.0
 20
0.0
 30
0.0
  9
$EXTMIN
 10
-2.630341936371436
 20
0.9736877739814389
 30
-0.0000000000000053
  9
$EXTMAX
 10
37.014650944132597
 20
30.706773956270741
 30
0.0000000000000099
  9
$LIMMIN
 10
0.0
 20
0.0
  9
$LIMMAX
 10
30.0
 20
20.0
  9
$ORTHOMODE
 70
     1
  9
$REGENMODE
 70
     1
  9
$FILLMODE
 70
     1
  9
$QTEXTMODE
 70
     0
  9
$MIRRTEXT
 70
     0
  9
$DRAGMODE
 70
     2
  9
$LTSCALE
 40
1.0
  9
$OSMODE
 70
    55
  9
$ATTMODE
 70
     1
  9
$TEXTSIZE
 40
0.5244619964034976
  9
$TRACEWID
 40
0.05
  9
$TEXTSTYLE
  7
SMOOTH
  9
$CLAYER
  8
DIM
  9
$CELTYPE
  6
BYLAYER
  9
$CECOLOR
 62
   256
  9
$DIMSCALE
 40
1.0
  9
$DIMASZ
 40
0.25
  9
$DIMEXO
 40
0.1875
  9
$DIMDLI
 40
0.375
  9
$DIMRND
 40
0.0
  9
$DIMDLE
 40
0.0
  9
$DIMEXE
 40
0.18
  9
$DIMTP
 40
0.0
  9
$DIMTM
 40
0.0
  9
$DIMTXT
 40
0.375
  9
$DIMCEN
 40
0.09
  9
$DIMTSZ
 40
0.0
  9
$DIMTOL
 70
     0
  9
$DIMLIM
 70
     0
  9
$DIMTIH
 70
     1
  9
$DIMTOH
 70
     1
  9
$DIMSE1
 70
     0
  9
$DIMSE2
 70
     0
  9
$DIMTAD
 70
     0
  9
$DIMZIN
 70
     0
  9
$DIMBLK
  1

  9
$DIMASO
 70
     0
  9
$DIMSHO
 70
     1
  9
$DIMPOST
  1

  9
$DIMAPOST
  1

  9
$DIMALT
 70
     0
  9
$DIMALTD
 70
     2
  9
$DIMALTF
 40
25.399999999999999
  9
$DIMLFAC
 40
1.0
  9
$DIMTOFL
 70
     0
  9
$DIMTVP
 40
0.0
  9
$DIMTIX
 70
     0
  9
$DIMSOXD
 70
     0
  9
$DIMSAH
 70
     0
  9
$DIMBLK1
  1

  9
$DIMBLK2
  1

  9
$DIMSTYLE
  2
STANDARD
  9
$DIMCLRD
 70
   256
  9
$DIMCLRE
 70
   256
  9
$DIMCLRT
 70
   256
  9
$DIMTFAC
 40
1.0
  9
$DIMGAP
 40
0.15625
  9
$LUNITS
 70
     4
  9
$LUPREC
 70
     4
  9
$SKETCHINC
 40
0.1
  9
$FILLETRAD
 40
0.0
  9
$AUNITS
 70
     0
  9
$AUPREC
 70
     8
  9
$MENU
  1
acad
  9
$ELEVATION
 40
0.0
  9
$PELEVATION
 40
0.0
  9
$THICKNESS
 40
0.0
  9
$LIMCHECK
 70
     0
  9
$BLIPMODE
 70
     0
  9
$CHAMFERA
 40
0.0
  9
$CHAMFERB
 40
0.0
  9
$SKPOLY
 70
     0
  9
$TDCREATE
 40
2449555.4728885419
  9
$TDUPDATE
 40
2458148.6128656948
  9
$TDINDWG
 40
19.870510601900001
  9
$TDUSRTIMER
 40
19.870510601900001
  9
$USRTIMER
 70
     1
  9
$ANGBASE
 50
0.0
  9
$ANGDIR
 70
     0
  9
$PDMODE
 70
     0
  9
$PDSIZE
 40
0.0
  9
$PLINEWID
 40
0.0
  9
$COORDS
 70
     1
  9
$SPLFRAME
 70
     0
  9
$SPLINETYPE
 70
     6
  9
$SPLINESEGS
 70
     8
  9
$ATTDIA
 70
     1
  9
$ATTREQ
 70
     1
  9
$HANDLING
 70
     1
  9
$HANDSEED
  5
5B71A
  9
$SURFTAB1
 70
     6
  9
$SURFTAB2
 70
     6
  9
$SURFTYPE
 70
     6
  9
$SURFU
 70
     6
  9
$SURFV
 70
     6
  9
$UCSNAME
  2

  9
$UCSORG
 10
0.0
 20
0.0
 30
0.0
  9
$UCSXDIR
 10
1.0
 20
0.0
 30
0.0
  9
$UCSYDIR
 10
0.0
 20
1.0
 30
0.0
  9
$PUCSNAME
  2

  9
$PUCSORG
 10
0.0
 20
0.0
 30
0.0
  9
$PUCSXDIR
 10
1.0
 20
0.0
 30
0.0
  9
$PUCSYDIR
 10
0.0
 20
1.0
 30
0.0
  9
$USERI1
 70
     0
  9
$USERI2
 70
     0
  9
$USERI3
 70
     0
  9
$USERI4
 70
     0
  9
$USERI5
 70
     0
  9
$USERR1
 40
0.0
  9
$USERR2
 40
0.0
  9
$USERR3
 40
0.0
  9
$USERR4
 40
0.0
  9
$USERR5
 40
0.0
  9
$WORLDVIEW
 70
     1
  9
$SHADEDGE
 70
     3
  9
$SHADEDIF
 70
    70
  9
$TILEMODE
 70
     1
  9
$MAXACTVP
 70
    16
  9
$PLIMCHECK
 70
     0
  9
$PEXTMIN
 10
1.0000000000000000E+020
 20
1.0000000000000000E+020
 30
1.0000000000000000E+020
  9
$PEXTMAX
 10
-1.0000000000000000E+020
 20
-1.0000000000000000E+020
 30
-1.0000000000000000E+020
  9
$PLIMMIN
 10
0.0
 20
0.0
  9
$PLIMMAX
 10
12.0
 20
9.0
  9
$UNITMODE
 70
     0
  9
$VISRETAIN
 70
     0
  9
$PLINEGEN
 70
     0
  9
$PSLTSCALE
 70
     0
  0
ENDSEC
  0
SECTION
  2
TABLES
  0
TABLE
  2
VPORT
 70
     1
  0
VPORT
  2
*ACTIVE
 70
     0
 10
0.0
 20
0.0
 11
1.0
 21
1.0
 12
17.19215450388058
 22
15.84023086512609
 13
0.0
 23
0.0
 14
1.0
 24
1.0
 15
0.0
 25
0.0
 16
0.0
 26
0.0
 36
1.0
 17
0.0
 27
0.0
 37
0.0
 40
30.008818047967409
 41
2.159442724458204
 42
50.0
 43
0.0
 44
0.0
 50
0.0
 51
0.0
 71
     0
 72
   100
 73
     1
 74
     0
 75
     0
 76
     0
 77
     0
 78
     0
  0
ENDTAB
  0
TABLE
  2
LTYPE
 70
     1
  0
LTYPE
  2
CONTINUOUS
 70
     0
  3
Solid line
 72
    65
 73
     0
 40
0.0
  0
ENDTAB
  0
TABLE
  2
LAYER
 70
     8
  0
LAYER
  2
0
 70
     0
 62
     7
  6
CONTINUOUS
  0
LAYER
  2
OBJ
 70
     0
 62
     7
  6
CONTINUOUS
  0
LAYER
  2
DIM
 70
     0
 62
     7
  6
CONTINUOUS
  0
LAYER
  2
TITLE
 70
     0
 62
     7
  6
CONTINUOUS
  0
LAYER
  2
TITLE2
 70
     0
 62
     7
  6
CONTINUOUS
  0
LAYER
  2
DEFPOINTS
 70
     0
 62
     7
  6
CONTINUOUS
  0
LAYER
  2
CON
 70
     1
 62
     3
  6
CONTINUOUS
  0
LAYER
  2
TEMPLATE
 70
     1
 62
     3
  6
CONTINUOUS
  0
ENDTAB
  0
TABLE
  2
STYLE
 70
     9
  0
STYLE
  2
STANDARD
 70
     0
 40
0.0
 41
1.0
 50
0.0
 71
     0
 42
0.2
  3
TXT
  4

  0
STYLE
  2
SMOOTH
 70
     0
 40
0.0
 41
1.0
 50
0.0
 71
     0
 42
0.5244619964034976
  3
txt
  4

  0
STYLE
  2
SIMPLEX
 70
     0
 40
0.0
 41
1.0
 50
0.0
 71
     0
 42
0.01
  3
txt
  4

  0
STYLE
  2
GG
 70
     0
 40
0.0078125
 41
1.0
 50
0.0
 71
     0
 42
0.0078125
  3
txt
  4

  0
STYLE
  2
GGATT
 70
     0
 40
0.0
 41
1.0
 50
0.0
 71
     0
 42
0.0104166666666678
  3
txt
  4

  0
ENDTAB
  0
TABLE
  2
VIEW
 70
     0
  0
ENDTAB
  0
TABLE
  2
UCS
 70
     0
  0
ENDTAB
  0
TABLE
  2
APPID
 70
    25
  0
APPID
  2
ACAD
 70
     0
  0
APPID
  2
ACAD_DSTYLE_DIMTEXT_FILL
 70
     0
  0
APPID
  2
ACAECLAYERSTANDARD
 70
     0
  0
APPID
  2
ACAD_PSEXT
 70
     0
  0
APPID
  2
RAK
 70
     0
  0
APPID
  2
ACAD_MLEADERVER
 70
     0
  0
APPID
  2
MCAD_NO_VIS
 70
     0
  0
APPID
  2
ACAD_TEMP_GRAPHIC
 70
     0
  0
APPID
  2
AD_DRAW
 70
     0
  0
APPID
  2
ACATTRIBSERVICES
 70
     0
  0
APPID
  2
DESIGNERASSEMBLIES
 70
     0
  0
APPID
  2
ACADM_DIM_EDIT
 70
     0
  0
APPID
  2
AMDT_DM_ADJ
 70
     0
  0
APPID
  2
DCO15
 70
     0
  0
APPID
  2
ACAD_EXEMPT_FROM_CAD_STANDARDS
 70
     0
  0
APPID
  2
ACAD_NAV_VCDISPLAY
 70
     0
  0
APPID
  2
ACAD_DSTYLE_DIMARC_LENGTH_
 70
     0
  0
APPID
  2
ACADANNOPO
 70
     0
  0
APPID
  2
ACAD_DSTYLE_DIMJAG
 70
     0
  0
APPID
  2
ACAD_DSTYLE_DIMTALN
 70
     0
  0
APPID
  2
ACAD_DSTYLE_DIMRADIAL_EXTENSION
 70
     0
  0
APPID
  2
ACCMTRANSPARENCY
 70
     0
  0
APPID
  2
GRADIENTCOLOR1ACI
 70
     0
  0
APPID
  2
GRADIENTCOLOR2ACI
 70
     0
  0
APPID
  2
CONTENTBLOCKICON
 70
     0
  0
ENDTAB
  0
TABLE
  2
DIMSTYLE
 70
     5
  0
DIMSTYLE
  2
STANDARD
 70
     0
  3

  4

  5

  6

  7

 40
1.0
 41
0.25
 42
0.125
 43
0.38
 44
0.18
 45
0.0
 46
0.0
 47
0.0
 48
0.0
140
0.375
141
0.09
142
0.0
143
25.399999999999999
144
1.0
145
0.0
146
1.0
147
0.09375
 71
     0
 72
     0
 73
     1
 74
     1
 75
     0
 76
     0
 77
     0
 78
     0
170
     0
171
     2
172
     0
173
     0
174
     0
175
     0
176
   256
177
   256
178
   256
  0
ENDTAB
  0
ENDSEC
  0
SECTION
  2
BLOCKS
  0
BLOCK
  8
0
  2
$MODEL_SPACE
 70
     0
 10
0.0
 20
0.0
 30
0.0
  3
$MODEL_SPACE
  1

  0
ENDBLK
  5
36
  8
0
  0
BLOCK
 67
     1
  8
0
  2
$PAPER_SPACE
 70
     0
 10
0.0
 20
0.0
 30
0.0
  3
$PAPER_SPACE
  1

  0
ENDBLK
  5
34
 67
     1
  8
0
  0
BLOCK
  8
0
  2
TITLEBLOCK2018
 70
     2
 10
0.0
 20
0.0
 30
0.0
  3
TITLEBLOCK2018
  1

  0
TEXT
  5
519A2
  8
TITLE
 10
-15.5080855019004
 20
22.839227868014159
 30
0.0
 40
0.8923397010612436
  1
CATALOG SHAPE
 41
0.5000000000000098
  7
GG
  0
TEXT
  5
519A3
  8
TITLE
 10
-20.665040879633459
 20
22.84950118295238
 30
0.0
 40
0.9043244580165586
  1
.
 41
0.5000000000000098
  7
GG
  0
TEXT
  5
519A4
  8
TITLE
 10
-29.57102643300615
 20
22.50308034591276
 30
0.0
 40
0.2702390500332978
  1
Title
 41
0.800530503978795
  7
SIMPLEX
  0
POLYLINE
  5
519A5
  8
TITLE
 66
     1
 10
0.0
 20
0.0
 30
0.0
 40
0.064375
 41
0.064375
  0
VERTEX
  5
5B6A0
  8
TITLE
 10
-33.757371477386471
 20
1.089099129173027
 30
0.0
  0
VERTEX
  5
5B6A1
  8
TITLE
 10
-2.6182998452608821
 20
1.089099129173027
 30
0.0
  0
SEQEND
  5
5B6A2
  8
TITLE
  0
POLYLINE
  5
519A6
  8
TITLE
 66
     1
 10
0.0
 20
0.0
 30
0.0
 40
0.064375
 41
0.064375
  0
VERTEX
  5
5B6A3
  8
TITLE
 10
-2.6182998452608821
 20
1.089099129173027
 30
0.0
  0
VERTEX
  5
5B6A4
  8
TITLE
 10
-2.6182998452608821
 20
24.42792617750569
 30
0.0
  0
SEQEND
  5
5B6A5
  8
TITLE
  0
POLYLINE
  5
519A7
  8
TITLE
 66
     1
 10
0.0
 20
0.0
 30
0.0
 40
0.064375
 41
0.064375
  0
VERTEX
  5
5B6A6
  8
TITLE
 10
-2.6182998452608821
 20
24.42792617750569
 30
0.0
  0
VERTEX
  5
5B6A7
  8
TITLE
 10
-33.757371477386471
 20
24.42792617750569
 30
0.0
  0
SEQEND
  5
5B6A8
  8
TITLE
  0
POLYLINE
  5
519A8
  8
TITLE
 66
     1
 10
0.0
 20
0.0
 30
0.0
 40
0.064375
 41
0.064375
  0
VERTEX
  5
5B6A9
  8
TITLE
 10
-33.757371477386471
 20
24.42792617750569
 30
0.0
  0
VERTEX
  5
5B6AA
  8
TITLE
 10
-33.757371477386471
 20
1.089099129173027
 30
0.0
  0
SEQEND
  5
5B6AB
  8
TITLE
  0
POLYLINE
  5
519A9
  8
TITLE
 66
     1
 10
0.0
 20
0.0
 30
0.0
 40
0.064375
 41
0.064375
  0
VERTEX
  5
5B6AC
  8
TITLE
 10
-8.4568757762866476
 20
24.42792617750569
 30
0.0
  0
VERTEX
  5
5B6AD
  8
TITLE
 10
-8.4568757762866476
 20
1.089099129173027
 30
0.0
  0
SEQEND
  5
5B6AE
  8
TITLE
  0
LINE
  5
519AA
  8
TITLE
 10
-8.4568757762866476
 20
21.516831973353781
 30
0.0
 11
-2.6182998452608821
 21
21.516831973353781
 31
0.0
  0
LINE
  5
519AB
  8
TITLE
 10
-8.4568757762866476
 20
19.762367964026559
 30
0.0
 11
-2.6182998452608821
 21
19.762367964026559
 31
0.0
  0
LINE
  5
519AC
  8
TITLE
 10
-8.4568757762866476
 20
17.938885741967919
 30
0.0
 11
-2.6182998452608821
 21
17.938885741967919
 31
0.0
  0
LINE
  5
519AD
  8
TITLE
 10
-8.4568757762866476
 20
17.209547396707599
 30
0.0
 11
-2.6182998452608821
 21
17.209547396707599
 31
0.0
  0
LINE
  5
519AE
  8
TITLE
 10
-8.4568757762866476
 20
16.480209051447272
 30
0.0
 11
-2.6182998452608821
 21
16.480209051447272
 31
0.0
  0
LINE
  5
519AF
  8
TITLE
 10
-8.4568757762866476
 20
15.75087070618695
 30
0.0
 11
-2.6182998452608821
 21
15.75087070618695
 31
0.0
  0
LINE
  5
519B0
  8
TITLE
 10
-8.4568757762866476
 20
15.02153236092663
 30
0.0
 11
-2.6182998452608821
 21
15.02153236092663
 31
0.0
  0
LINE
  5
519B1
  8
TITLE
 10
-8.4568757762866476
 20
14.292194015666309
 30
0.0
 11
-2.6182998452608821
 21
14.292194015666309
 31
0.0
  0
LINE
  5
519B2
  8
TITLE
 10
-8.4568757762866476
 20
13.562855670405989
 30
0.0
 11
-2.6182998452608821
 21
13.562855670405989
 31
0.0
  0
LINE
  5
519B3
  8
TITLE
 10
-8.4568757762866476
 20
12.557444474219951
 30
0.0
 11
-2.6182998452608821
 21
12.557444474219951
 31
0.0
  0
LINE
  5
519B4
  8
TITLE
 10
-8.4568757762866476
 20
11.828106128959631
 30
0.0
 11
-2.6182998452608821
 21
11.828106128959631
 31
0.0
  0
LINE
  5
519B5
  8
TITLE
 10
-8.4568757762866476
 20
11.09876778369931
 30
0.0
 11
-2.6182998452608821
 21
11.09876778369931
 31
0.0
  0
LINE
  5
519B6
  8
TITLE
 10
-8.4568757762866476
 20
9.6400910931786612
 30
0.0
 11
-2.6182998452608821
 21
9.6400910931786612
 31
0.0
  0
LINE
  5
519B7
  8
TITLE
 10
-8.4568757762866476
 20
8.910752747918341
 30
0.0
 11
-2.6182998452608821
 21
8.910752747918341
 31
0.0
  0
LINE
  5
519B8
  8
TITLE
 10
-8.4568757762866476
 20
8.1814144026580191
 30
0.0
 11
-2.6182998452608821
 21
8.1814144026580191
 31
0.0
  0
LINE
  5
519B9
  8
TITLE
 10
-8.4568757762866476
 20
7.4520760573976954
 30
0.0
 11
-2.6182998452608821
 21
7.4520760573976954
 31
0.0
  0
LINE
  5
519BA
  8
TITLE
 10
-8.4568757762866476
 20
6.7227377121373726
 30
0.0
 11
-2.6182998452608821
 21
6.7227377121373726
 31
0.0
  0
POLYLINE
  5
519BB
  8
TITLE
 66
     1
 10
0.0
 20
0.0
 30
0.0
 40
0.064375
 41
0.064375
  0
VERTEX
  5
5B6AF
  8
TITLE
 10
-8.4568757762866476
 20
5.9933993668768384
 30
0.0
  0
VERTEX
  5
5B6B0
  8
TITLE
 10
-2.6182998452608821
 20
5.9933993668768384
 30
0.0
  0
SEQEND
  5
5B6B1
  8
TITLE
  0
TEXT
  5
519BC
  8
TITLE
 10
-8.2136017791606992
 20
21.152162800723609
 30
0.0
 40
0.233388270483323
  1
DRAWING:
 41
0.6671087533156612
  7
GG
  0
TEXT
  5
519BD
  8
TITLE
 10
-8.2136017791606992
 20
19.329652666168229
 30
0.0
 40
0.233388270483323
  1
PROJECT:
 41
0.6671087533156612
  7
GG
  0
TEXT
  5
519BE
  8
TITLE
 10
-8.2136017791606992
 20
17.574216569337761
 30
0.0
 40
0.2333882704833194
  1
PAGE:
 41
0.6671087533156717
  7
GG
  0
TEXT
  5
519BF
  8
TITLE
 10
-5.6073411886106683
 20
17.574216569337761
 30
0.0
 40
0.2333882704833194
  1
DATE:
 41
0.6671087533156714
  7
GG
  0
TEXT
  5
519C0
  8
TITLE
 10
-8.2136017791606992
 20
16.84487822407743
 30
0.0
 40
0.233388270483323
  1
ARCHITECT:
 41
0.6671087533156612
  7
GG
  0
TEXT
  5
519C1
  8
TITLE
 10
-8.2136017791606992
 20
16.11553987881712
 30
0.0
 40
0.2333882704833212
  1
CUSTOMER:
 41
0.6671087533156664
  7
GG
  0
TEXT
  5
519C2
  8
TITLE
 10
-8.2136017791606992
 20
15.38620153355679
 30
0.0
 40
0.2333882704833212
  1
SALES REP:
 41
0.6671087533156664
  7
GG
  0
TEXT
  5
519C3
  8
TITLE
 10
-8.2136017791606992
 20
14.65686318829647
 30
0.0
 40
0.2333882704833212
  1
SALES OFFICE:
 41
0.6671087533156664
  7
GG
  0
TEXT
  5
519C4
  8
TITLE
 10
-8.2136017791606992
 20
13.92752484303614
 30
0.0
 40
0.233388270483323
  1
PLANT:
 41
0.6671087533156612
  7
GG
  0
TEXT
  5
519C5
  8
TITLE
 10
-8.2136017791606992
 20
13.19818649777582
 30
0.0
 40
0.2333882704833212
  1
BRICK NAME:
 41
0.6671087533156664
  7
GG
  0
TEXT
  5
519C6
  8
TITLE
 10
-8.2136017791606992
 20
12.192775301589791
 30
0.0
 40
0.2333882704833212
  1
BRICK TYPE:
 41
0.6671087533156664
  7
GG
  0
TEXT
  5
519C7
  8
TITLE
 10
-8.2136017791606992
 20
11.46343695632947
 30
0.0
 40
0.2333882704833212
  1
TEXTURE:
 41
0.6671087533156664
  7
GG
  0
TEXT
  5
519C8
  8
TITLE
 10
-8.2136017791606992
 20
9.2754219205485011
 30
0.0
 40
0.2333882704833212
  1
CORING:
 41
0.6671087533156664
  7
GG
  0
TEXT
  5
519C9
  8
TITLE
 10
-8.2136017791606992
 20
8.5460835752881792
 30
0.0
 40
0.2333882704833212
  1
SIZE:
 41
0.8005305039787968
  7
SIMPLEX
  0
TEXT
  5
519CA
  8
TITLE
 10
-5.5945121978335273
 20
8.5460835752881792
 30
0.0
 40
0.2333882704833212
  1
BOND:
 41
0.8005305039787968
  7
SIMPLEX
  0
TEXT
  5
519CB
  8
TITLE
 10
-8.2136017791606992
 20
7.8167452300278573
 30
0.0
 40
0.2333882704833221
  1
ASTM STANDARD:
 41
0.8005305039787938
  7
SIMPLEX
  0
TEXT
  5
519CC
  8
TITLE
 10
-8.2136017791606992
 20
7.0874068847675344
 30
0.0
 40
0.2333882704833221
  1
COMPUTER FILE:
 41
0.8005305039787938
  7
SIMPLEX
  0
TEXT
  5
519CD
  8
TITLE
 10
-8.2136017791606992
 20
6.3580685395072098
 30
0.0
 40
0.2333882704833221
  1
DRAWN BY:
 41
0.8005305039787938
  7
SIMPLEX
  0
TEXT
  5
519CE
  8
TITLE
 10
-8.1819323313537815
 20
10.78160029004715
 30
0.0
 40
0.2333882704833212
  1
NUMBER OF
 41
0.8005305039787968
  7
SIMPLEX
  0
TEXT
  5
519CF
  8
TITLE
 10
-8.1254847719344951
 20
10.443197090522339
 30
0.0
 40
0.233388270483323
  1
FINISHED FACES:
 41
0.8005305039787904
  7
SIMPLEX
  0
TEXT
  5
519D0
  8
TITLE
 10
-8.3515441957258254
 20
5.623390379414321
 30
0.0
 40
0.2567270975316337
  1
This document is the property 
 41
0.8005305039787934
  7
SIMPLEX
  0
TEXT
  5
519D1
  8
TITLE
 10
-8.3515441957258254
 20
5.1255361282437493
 30
0.0
 40
0.2567270975316355
  1
of GLEN-GERY CORPORATION and
 41
0.8005305039787876
  7
SIMPLEX
  0
TEXT
  5
519D2
  8
TITLE
 10
-8.3515441957258254
 20
4.6996163523143757
 30
0.0
 40
0.2567270975316355
  1
may not be reproduced without
 41
0.8005305039787876
  7
SIMPLEX
  0
TEXT
  5
519D3
  8
TITLE
 10
-8.3515441957258254
 20
4.2377293387644093
 30
0.0
 40
0.2567270975316318
  1
written permission from the
 41
0.8005305039787991
  7
SIMPLEX
  0
TEXT
  5
519D4
  8
TITLE
 10
-8.3515441957258254
 20
3.7933399002731081
 30
0.0
 40
0.2567270975316337
  1
appropriate Glen-Gery 
 41
0.8005305039787934
  7
SIMPLEX
  0
TEXT
  5
519D5
  8
TITLE
 10
-8.3515441957258254
 20
3.3683922118469991
 30
0.0
 40
0.2567270975316337
  1
Representative. The contents 
 41
0.8005305039787934
  7
SIMPLEX
  0
TEXT
  5
519D6
  8
TITLE
 10
-8.3515441957258254
 20
2.943444523420891
 30
0.0
 40
0.2567270975316337
  1
of this document are advisory 
 41
0.8005305039787934
  7
SIMPLEX
  0
TEXT
  5
519D7
  8
TITLE
 10
-8.3515441957258254
 20
2.517524747491525
 30
0.0
 40
0.2567270975316337
  1
only. Responsibility for 
 41
0.8005305039787934
  7
SIMPLEX
  0
TEXT
  5
519D8
  8
TITLE
 10
-8.3515441957258254
 20
2.110074634124087
 30
0.0
 40
0.2567270975316337
  1
accuracy and applicability lies 
 41
0.8005305039787934
  7
SIMPLEX
  0
TEXT
  5
519D9
  8
TITLE
 10
-8.3268928293692142
 20
1.6306900455154449
 30
0.0
 40
0.2567270975316337
  1
entirely with the Project 
 41
0.8005305039787938
  7
SIMPLEX
  0
TEXT
  5
519DA
  8
TITLE
 10
-8.3515441957258254
 20
1.2417095947099399
 30
0.0
 40
0.2567270975316337
  1
Designer and/or Owner.
 41
0.8005305039787934
  7
SIMPLEX
  0
TEXT
  5
519DB
  8
TITLE
 10
-33.589233693619683
 20
22.53503235919726
 30
0.0
 40
0.2567270975316355
  1
Signature
 41
0.8005305039787874
  7
SIMPLEX
  0
TEXT
  5
519DC
  8
TITLE
 10
-33.652039896825642
 20
23.560062938872601
 30
0.0
 40
0.2917353381041299
  1
faces, and specifications and I agree to them.
 41
0.8005305039787916
  7
SIMPLEX
  0
TEXT
  5
519DD
  8
TITLE
 10
-33.652039896825642
 20
24.05791719004317
 30
0.0
 40
0.2917353381041263
  1
This drawing has been reviewed for dimensions,
 41
0.8005305039788017
  7
SIMPLEX
  0
LINE
  5
519DE
  8
TITLE
 10
-33.726699250059887
 20
22.838521489005618
 30
0.0
 11
-23.814614652752169
 21
22.838521489005618
 31
0.0
  0
TEXT
  5
519DF
  8
TITLE
 10
-26.179633573930641
 20
22.53503235919726
 30
0.0
 40
0.2567270975316355
  1
Date
 41
0.8005305039787879
  7
SIMPLEX
  0
POLYLINE
  5
519E0
  8
TITLE
 66
     1
 10
0.0
 20
0.0
 30
0.0
 40
0.064375
 41
0.064375
  0
VERTEX
  5
5B6B2
  8
TITLE
 10
-33.757371477386471
 20
22.369781862573198
 30
0.0
  0
VERTEX
  5
5B6B3
  8
TITLE
 10
-23.814614652752169
 20
22.369781862573198
 30
0.0
  0
SEQEND
  5
5B6B4
  8
TITLE
  0
POLYLINE
  5
519E1
  8
TITLE
 66
     1
 10
0.0
 20
0.0
 30
0.0
 40
0.064375
 41
0.064375
  0
VERTEX
  5
5B6B5
  8
TITLE
 10
-23.814614652752169
 20
22.369781862573198
 30
0.0
  0
VERTEX
  5
5B6B6
  8
TITLE
 10
-23.814614652752169
 20
24.42792617750569
 30
0.0
  0
SEQEND
  5
5B6B7
  8
TITLE
  0
TEXT
  5
519E2
  8
TITLE
 10
-8.2136017791606992
 20
10.004760265808819
 30
0.0
 40
0.233388270483323
  1
TEXTURE DIRECTION:
 41
0.6671087533156612
  7
GG
  0
LINE
  5
519E3
  8
TITLE
 10
-8.4568757762866476
 20
10.36942943843898
 30
0.0
 11
-2.6182998452608821
 21
10.36942943843898
 31
0.0
  0
POLYLINE
  5
519E4
  8
TITLE
 66
     1
 10
0.0
 20
0.0
 30
0.0
 40
0.064375
 41
0.064375
  0
VERTEX
  5
5B6B8
  8
TITLE
 10
-23.814614652752169
 20
22.369781862573198
 30
0.0
  0
VERTEX
  5
5B6B9
  8
TITLE
 10
-16.491537129062579
 20
22.369781862573198
 30
0.0
  0
SEQEND
  5
5B6BA
  8
TITLE
  0
LINE
  5
519E5
  8
TITLE
 10
-16.491537129062579
 20
22.369781862573198
 30
0.0
 11
-16.491537129062579
 21
24.42792617750569
 31
0.0
  0
TEXT
  5
519E6
  8
TITLE
 10
-23.533946274646311
 20
23.00930532082182
 30
0.0
 40
0.7001648114499104
  1
Qty :
 41
0.8005305039787931
  7
SIMPLEX
  0
LINE
  5
519E7
  8
TITLE
 10
-21.128102672234618
 20
22.742173676513961
 30
0.0
 11
-16.76655935776051
 21
22.742173676513961
 31
0.0
  0
ATTDEF
  5
519EA
  8
TITLE2
 10
-8.0531348495600241
 20
20.605159041778379
 30
0.0
 40
0.364669172630178
  1
N/A
 41
0.8005305039787987
  7
GGATT
  3
Drawing Title [line 1 of 2]:
  2
DWG1
 70
     0
  0
ATTDEF
  5
519EB
  8
TITLE2
 10
-8.0531348495600241
 20
19.997377087394771
 30
0.0
 40
0.364669172630178
  1
N/A
 41
0.8005305039787987
  7
GGATT
  3
Drawing Title [line 2 of 2]:
  2
DWG2
 70
     0
  0
ATTDEF
  5
519EC
  8
TITLE2
 10
-8.0531348495600241
 20
18.782648907222988
 30
0.0
 40
0.3646691726301817
  1
N/A
 41
0.8005305039787907
  7
GGATT
  3
PROJECT Name [line 1 of 2]:
  2
PROJ1
 70
     0
  0
ATTDEF
  5
519ED
  8
TITLE2
 10
-8.0531348495600241
 20
18.174866952839391
 30
0.0
 40
0.3646691726301817
  1
N/A
 41
0.8005305039787907
  7
GGATT
  3
PROJECT Name [line 2 of 2]:
  2
PROJ2
 70
     0
  0
ATTDEF
  5
519EE
  8
TITLE2
 10
-7.2400289630169432
 20
17.452660178461471
 30
0.0
 40
0.2431127817534672
  1
1 of 1
 41
0.8005305039787947
  7
GGATT
  3
PAGE NO. 
  2
PAGE
 70
     0
  0
ATTDEF
  5
519EF
  8
TITLE2
 10
-4.6465973632439086
 20
17.452660178461471
 30
0.0
 40
0.2431127817534672
  1
N/A
 41
0.8005305039787943
  7
GGATT
  3
DATE [DDMMMYY]:
  2
DATE
 70
     0
  0
ATTDEF
  5
519F0
  8
TITLE2
 10
-6.4591596990101721
 20
16.723321833201119
 30
0.0
 40
0.2431127817534691
  1
N/A
 41
0.8005305039787886
  7
GGATT
  3
DESIGN FIRM NAME:
  2
ARCH
 70
     0
  0
ATTDEF
  5
519F1
  8
TITLE2
 10
-6.4591596990101721
 20
15.993983487940779
 30
0.0
 40
0.2431127817534691
  1
N/A
 41
0.8005305039787886
  7
GGATT
  3
CUSTOMER NAME:
  2
CUST
 70
     0
  0
ATTDEF
  5
519F2
  8
TITLE2
 10
-6.4591596990101721
 20
15.26464514268041
 30
0.0
 40
0.2431127817534691
  1
N/A
 41
0.8005305039787886
  7
GGATT
  3
SALES REPRESENTATIVE:
  2
REP
 70
     0
  0
ATTDEF
  5
519F3
  8
TITLE2
 10
-6.134794369508878
 20
14.535306797420059
 30
0.0
 40
0.2431127817534691
  1
N/A
 41
0.8005305039787886
  7
GGATT
  3
PRIMARY SALES OFFICE:
  2
OFFICE
 70
     0
  0
ATTDEF
  5
519F4
  8
TITLE2
 10
-6.8350491287794064
 20
13.805968452159711
 30
0.0
 40
0.2431127817534691
  1
N/A
 41
0.8005305039787959
  7
GGATT
  3
BRICK PRODUCED AT WHAT PLANT ?
  2
PLANT
 70
     0
  0
ATTDEF
  5
519F5
  8
TITLE2
 10
-7.8941287090322687
 20
12.67613005555644
 30
0.0
 40
0.3640857019539519
  1
N/A
 41
0.800530503978797
  7
GGATT
  3
BRICK NAME:
  2
BRICK
 70
     0
  0
ATTDEF
  5
519F6
  8
TITLE2
 10
-6.5720548178487119
 20
12.071218910713309
 30
0.0
 40
0.2431127817534691
  1
N/A
 41
0.8005305039787963
  7
GGATT
  3
MOLDED, EXTRUDED, HANDMADE OR REPRESSED?
  2
PROCESS
 70
     0
  0
ATTDEF
  5
519F7
  8
TITLE2
 10
-4.6258628408409841
 20
12.071218910713309
 30
0.0
 40
0.2431127817534691
  1
N/A
 41
0.8005305039787959
  7
GGATT
  3
FLASHED OR CLEARBURN?
  2
BURN
 70
     0
  0
ATTDEF
  5
519F8
  8
TITLE2
 10
-6.8350491287794064
 20
11.34188056545297
 30
0.0
 40
0.2431127817534691
  1
N/A
 41
0.8005305039787959
  7
GGATT
  3
TEXTURE FOR FINISHED FACES?
  2
TEXT
 70
     0
  0
ATTDEF
  5
519F9
  8
TITLE2
 10
-4.8888571517716954
 20
10.612542220192619
 30
0.0
 40
0.2431127817534709
  1
N/A
 41
0.8005305039787897
  7
GGATT
  3
TOTAL NO. OF FINISHED FACES PER UNIT?
  2
FACE
 70
     0
  0
ATTDEF
  5
519FA
  8
TITLE2
 10
-6.8350491287794064
 20
9.1538655296719522
 30
0.0
 40
0.24311278175347
  1
PLANT OPTION
 41
0.8005305039787929
  7
GGATT
  3
AS SHOWN/UNCORED/PLANT OPTION?
  2
CORING
 70
     0
  0
ATTDEF
  5
519FB
  8
TITLE2
 10
-7.1594144582806889
 20
8.4245271844116036
 30
0.0
 40
0.24311278175347
  1
N/A
 41
0.8005305039787929
  7
GGATT
  3
SIZE OF SURROUNDING BRICK?
  2
SIZE
 70
     0
  0
ATTDEF
  5
519FC
  8
TITLE2
 10
-4.5644918222704121
 20
8.4245271844116036
 30
0.0
 40
0.24311278175347
  1
N/A
 41
0.8005305039787929
  7
GGATT
  3
BOND PATTERN OF SURROUNDING BRICKWORK?
  2
BOND
 70
     0
  0
ATTDEF
  5
519FD
  8
TITLE2
 10
-5.3986184360624421
 20
7.6951888391512613
 30
0.0
 40
0.2431127817534672
  1
C216, FBS, SW
 41
0.8005305039787939
  7
GGATT
  3
ENTER THE ASTM STANDARD ?
  2
ASTM
 70
     0
  0
ATTDEF
  5
519FE
  8
TITLE2
 10
-5.38301550997038
 20
6.9658504938909109
 30
0.0
 40
0.2431127817534672
  1
N/A
 41
0.8005305039787943
  7
GGATT
  3
COMPUTER FILE [INCLUDE PATH AND DRIVE]:
  2
FILE
 70
     0
  0
ATTDEF
  5
519FF
  8
TITLE2
 10
-6.1217572415722472
 20
6.2365121486305677
 30
0.0
 40
0.2431127817534672
  1
N/A
 41
0.8005305039787947
  7
GGATT
  3
DRAWN BY:
  2
BY
 70
     0
  0
ATTDEF
  5
51A00
  8
TITLE2
 10
-5.5583678395734921
 20
9.8530691623312308
 30
0.0
 40
0.2431127817534691
  1
PLANT OPTION
 41
0.8005305039787959
  7
GGATT
  3
AS SHOWN/PLANT OPTION?
  2
TEXTURE
 70
     0
  0
ENDBLK
  5
51A01
  8
0
  0
BLOCK
  8
0
  2
*X1
 70
     1
 10
0.0
 20
0.0
 30
0.0
  3
*X1
  1

  0
LINE
  5
5AC28
  8
0
 62
     0
 10
17.351737497710509
 20
3.6294465253090791
 30
0.0
 11
17.351737497710509
 21
3.6294465253090791
 31
0.0
  0
LINE
  5
5AC29
  8
0
 62
     0
 10
17.45117438881487
 20
3.7288834164134368
 30
0.0
 11
17.45117438881487
 21
3.7288834164134368
 31
0.0
  0
LINE
  5
5AC2A
  8
0
 62
     0
 10
17.550611279919231
 20
3.828320307517795
 30
0.0
 11
17.550611279919231
 21
3.828320307517795
 31
0.0
  0
LINE
  5
5AC2B
  8
0
 62
     0
 10
17.650048171023592
 20
3.9277571986221531
 30
0.0
 11
17.650048171023592
 21
3.9277571986221531
 31
0.0
  0
LINE
  5
5AC2C
  8
0
 62
     0
 10
17.749485062127938
 20
4.0271940897265122
 30
0.0
 11
17.749485062127938
 21
4.0271940897265122
 31
0.0
  0
LINE
  5
5AC2D
  8
0
 62
     0
 10
17.848921953232299
 20
4.1266309808308703
 30
0.0
 11
17.848921953232299
 21
4.1266309808308703
 31
0.0
  0
LINE
  5
5AC2E
  8
0
 62
     0
 10
17.94835884433666
 20
4.2260678719352276
 30
0.0
 11
17.94835884433666
 21
4.2260678719352276
 31
0.0
  0
LINE
  5
5AC2F
  8
0
 62
     0
 10
18.047795735441021
 20
4.3255047630395858
 30
0.0
 11
18.047795735441021
 21
4.3255047630395858
 31
0.0
  0
LINE
  5
5AC30
  8
0
 62
     0
 10
18.147232626545371
 20
4.4249416541439439
 30
0.0
 11
18.147232626545371
 21
4.4249416541439439
 31
0.0
  0
LINE
  5
5AC31
  8
0
 62
     0
 10
18.246669517649732
 20
4.5243785452483021
 30
0.0
 11
18.246669517649732
 21
4.5243785452483021
 31
0.0
  0
LINE
  5
5AC32
  8
0
 62
     0
 10
18.346106408754089
 20
4.6238154363526611
 30
0.0
 11
18.346106408754089
 21
4.6238154363526611
 31
0.0
  0
LINE
  5
5AC33
  8
0
 62
     0
 10
18.445543299858439
 20
4.7232523274570193
 30
0.0
 11
18.445543299858439
 21
4.7232523274570193
 31
0.0
  0
LINE
  5
5AC34
  8
0
 62
     0
 10
18.5449801909628
 20
4.8226892185613766
 30
0.0
 11
18.5449801909628
 21
4.8226892185613766
 31
0.0
  0
LINE
  5
5AC35
  8
0
 62
     0
 10
18.644417082067161
 20
4.9221261096657347
 30
0.0
 11
18.644417082067161
 21
4.9221261096657347
 31
0.0
  0
LINE
  5
5AC36
  8
0
 62
     0
 10
18.743853973171511
 20
5.0215630007700929
 30
0.0
 11
18.743853973171511
 21
5.0215630007700929
 31
0.0
  0
LINE
  5
5AC37
  8
0
 62
     0
 10
18.843290864275868
 20
5.120999891874451
 30
0.0
 11
18.843290864275868
 21
5.120999891874451
 31
0.0
  0
LINE
  5
5AC38
  8
0
 62
     0
 10
18.942727755380229
 20
5.2204367829788101
 30
0.0
 11
18.942727755380229
 21
5.2204367829788101
 31
0.0
  0
LINE
  5
5AC39
  8
0
 62
     0
 10
19.04216464648459
 20
5.3198736740831682
 30
0.0
 11
19.04216464648459
 21
5.3198736740831682
 31
0.0
  0
LINE
  5
5AC3A
  8
0
 62
     0
 10
19.141601537588951
 20
5.4193105651875264
 30
0.0
 11
19.141601537588951
 21
5.4193105651875264
 31
0.0
  0
LINE
  5
5AC3B
  8
0
 62
     0
 10
19.241038428693301
 20
5.5187474562918837
 30
0.0
 11
19.241038428693301
 21
5.5187474562918837
 31
0.0
  0
LINE
  5
5AC3C
  8
0
 62
     0
 10
19.340475319797662
 20
5.6181843473962418
 30
0.0
 11
19.340475319797662
 21
5.6181843473962418
 31
0.0
  0
LINE
  5
5AC3D
  8
0
 62
     0
 10
19.439912210902019
 20
5.7176212385006
 30
0.0
 11
19.439912210902019
 21
5.7176212385006
 31
0.0
  0
LINE
  5
5AC3E
  8
0
 62
     0
 10
19.539349102006369
 20
5.817058129604959
 30
0.0
 11
19.539349102006369
 21
5.817058129604959
 31
0.0
  0
LINE
  5
5AC3F
  8
0
 62
     0
 10
19.63878599311073
 20
5.9164950207093172
 30
0.0
 11
19.63878599311073
 21
5.9164950207093172
 31
0.0
  0
LINE
  5
5AC40
  8
0
 62
     0
 10
19.738222884215091
 20
6.0159319118136754
 30
0.0
 11
19.738222884215091
 21
6.0159319118136754
 31
0.0
  0
LINE
  5
5AC41
  8
0
 62
     0
 10
19.837659775319452
 20
6.1153688029180326
 30
0.0
 11
19.837659775319452
 21
6.1153688029180326
 31
0.0
  0
LINE
  5
5AC42
  8
0
 62
     0
 10
19.937096666423798
 20
6.2148056940223908
 30
0.0
 11
19.937096666423798
 21
6.2148056940223908
 31
0.0
  0
LINE
  5
5AC43
  8
0
 62
     0
 10
20.036533557528159
 20
6.314242585126749
 30
0.0
 11
20.036533557528159
 21
6.314242585126749
 31
0.0
  0
LINE
  5
5AC44
  8
0
 62
     0
 10
20.13597044863252
 20
6.413679476231108
 30
0.0
 11
20.13597044863252
 21
6.413679476231108
 31
0.0
  0
LINE
  5
5AC45
  8
0
 62
     0
 10
20.235407339736881
 20
6.5131163673354662
 30
0.0
 11
20.235407339736881
 21
6.5131163673354662
 31
0.0
  0
LINE
  5
5AC46
  8
0
 62
     0
 10
20.334844230841231
 20
6.6125532584398243
 30
0.0
 11
20.334844230841231
 21
6.6125532584398243
 31
0.0
  0
LINE
  5
5AC47
  8
0
 62
     0
 10
20.434281121945592
 20
6.7119901495441816
 30
0.0
 11
20.434281121945592
 21
6.7119901495441816
 31
0.0
  0
LINE
  5
5AC48
  8
0
 62
     0
 10
20.533718013049949
 20
6.8114270406485398
 30
0.0
 11
20.533718013049949
 21
6.8114270406485398
 31
0.0
  0
LINE
  5
5AC49
  8
0
 62
     0
 10
20.63315490415431
 20
6.9108639317528979
 30
0.0
 11
20.63315490415431
 21
6.9108639317528979
 31
0.0
  0
LINE
  5
5AC4A
  8
0
 62
     0
 10
20.73259179525866
 20
7.0103008228572561
 30
0.0
 11
20.73259179525866
 21
7.0103008228572561
 31
0.0
  0
LINE
  5
5AC4B
  8
0
 62
     0
 10
20.832028686363021
 20
7.1097377139616151
 30
0.0
 11
20.832028686363021
 21
7.1097377139616151
 31
0.0
  0
LINE
  5
5AC4C
  8
0
 62
     0
 10
20.931465577467382
 20
7.2091746050659733
 30
0.0
 11
20.931465577467382
 21
7.2091746050659733
 31
0.0
  0
LINE
  5
5AC4D
  8
0
 62
     0
 10
21.030902468571739
 20
7.3086114961703306
 30
0.0
 11
21.030902468571739
 21
7.3086114961703306
 31
0.0
  0
LINE
  5
5AC4E
  8
0
 62
     0
 10
21.130339359676089
 20
7.4080483872746887
 30
0.0
 11
21.130339359676089
 21
7.4080483872746887
 31
0.0
  0
LINE
  5
5AC4F
  8
0
 62
     0
 10
21.22977625078045
 20
7.5074852783790469
 30
0.0
 11
21.22977625078045
 21
7.5074852783790469
 31
0.0
  0
LINE
  5
5AC50
  8
0
 62
     0
 10
21.329213141884811
 20
7.606922169483405
 30
0.0
 11
21.329213141884811
 21
7.606922169483405
 31
0.0
  0
LINE
  5
5AC51
  8
0
 62
     0
 10
21.428650032989172
 20
7.7063590605877641
 30
0.0
 11
21.428650032989172
 21
7.7063590605877641
 31
0.0
  0
LINE
  5
5AC52
  8
0
 62
     0
 10
21.528086924093522
 20
7.8057959516921223
 30
0.0
 11
21.528086924093522
 21
7.8057959516921223
 31
0.0
  0
LINE
  5
5AC53
  8
0
 62
     0
 10
21.627523815197879
 20
7.9052328427964804
 30
0.0
 11
21.627523815197879
 21
7.9052328427964804
 31
0.0
  0
LINE
  5
5AC54
  8
0
 62
     0
 10
21.72696070630224
 20
8.0046697339008386
 30
0.0
 11
21.72696070630224
 21
8.0046697339008386
 31
0.0
  0
LINE
  5
5AC55
  8
0
 62
     0
 10
21.82639759740659
 20
8.1041066250051976
 30
0.0
 11
21.82639759740659
 21
8.1041066250051976
 31
0.0
  0
LINE
  5
5AC56
  8
0
 62
     0
 10
21.925834488510951
 20
8.2035435161095567
 30
0.0
 11
21.925834488510951
 21
8.2035435161095567
 31
0.0
  0
LINE
  5
5AC57
  8
0
 62
     0
 10
22.025271379615312
 20
8.3029804072139157
 30
0.0
 11
22.025271379615312
 21
8.3029804072139157
 31
0.0
  0
LINE
  5
5AC58
  8
0
 62
     0
 10
22.124708270719669
 20
8.4024172983182748
 30
0.0
 11
22.124708270719669
 21
8.4024172983182748
 31
0.0
  0
LINE
  5
5AC59
  8
0
 62
     0
 10
22.224145161824019
 20
8.5018541894226338
 30
0.0
 11
22.224145161824019
 21
8.5018541894226338
 31
0.0
  0
LINE
  5
5AC5A
  8
0
 62
     0
 10
22.32358205292838
 20
8.6012910805269929
 30
0.0
 11
22.32358205292838
 21
8.6012910805269929
 31
0.0
  0
LINE
  5
5AC5B
  8
0
 62
     0
 10
17.302019052158329
 20
3.7786018619656159
 30
0.0
 11
17.302019052158329
 21
3.7786018619656159
 31
0.0
  0
LINE
  5
5AC5C
  8
0
 62
     0
 10
17.40145594326269
 20
3.878038753069974
 30
0.0
 11
17.40145594326269
 21
3.878038753069974
 31
0.0
  0
LINE
  5
5AC5D
  8
0
 62
     0
 10
17.50089283436705
 20
3.9774756441743331
 30
0.0
 11
17.50089283436705
 21
3.9774756441743331
 31
0.0
  0
LINE
  5
5AC5E
  8
0
 62
     0
 10
17.600329725471411
 20
4.0769125352786908
 30
0.0
 11
17.600329725471411
 21
4.0769125352786908
 31
0.0
  0
LINE
  5
5AC5F
  8
0
 62
     0
 10
17.699766616575761
 20
4.176349426383049
 30
0.0
 11
17.699766616575761
 21
4.176349426383049
 31
0.0
  0
LINE
  5
5AC60
  8
0
 62
     0
 10
17.799203507680119
 20
4.275786317487408
 30
0.0
 11
17.799203507680119
 21
4.275786317487408
 31
0.0
  0
LINE
  5
5AC61
  8
0
 62
     0
 10
17.89864039878448
 20
4.3752232085917662
 30
0.0
 11
17.89864039878448
 21
4.3752232085917662
 31
0.0
  0
LINE
  5
5AC62
  8
0
 62
     0
 10
17.99807728988884
 20
4.4746600996961243
 30
0.0
 11
17.99807728988884
 21
4.4746600996961243
 31
0.0
  0
LINE
  5
5AC63
  8
0
 62
     0
 10
18.097514180993191
 20
4.5740969908004816
 30
0.0
 11
18.097514180993191
 21
4.5740969908004816
 31
0.0
  0
LINE
  5
5AC64
  8
0
 62
     0
 10
18.196951072097551
 20
4.6735338819048398
 30
0.0
 11
18.196951072097551
 21
4.6735338819048398
 31
0.0
  0
LINE
  5
5AC65
  8
0
 62
     0
 10
18.296387963201909
 20
4.7729707730091979
 30
0.0
 11
18.296387963201909
 21
4.7729707730091979
 31
0.0
  0
LINE
  5
5AC66
  8
0
 62
     0
 10
18.395824854306259
 20
4.8724076641135561
 30
0.0
 11
18.395824854306259
 21
4.8724076641135561
 31
0.0
  0
LINE
  5
5AC67
  8
0
 62
     0
 10
18.49526174541062
 20
4.9718445552179151
 30
0.0
 11
18.49526174541062
 21
4.9718445552179151
 31
0.0
  0
LINE
  5
5AC68
  8
0
 62
     0
 10
18.59469863651498
 20
5.0712814463222733
 30
0.0
 11
18.59469863651498
 21
5.0712814463222733
 31
0.0
  0
LINE
  5
5AC69
  8
0
 62
     0
 10
18.694135527619331
 20
5.1707183374266306
 30
0.0
 11
18.694135527619331
 21
5.1707183374266306
 31
0.0
  0
LINE
  5
5AC6A
  8
0
 62
     0
 10
18.793572418723691
 20
5.2701552285309887
 30
0.0
 11
18.793572418723691
 21
5.2701552285309887
 31
0.0
  0
LINE
  5
5AC6B
  8
0
 62
     0
 10
18.893009309828049
 20
5.3695921196353469
 30
0.0
 11
18.893009309828049
 21
5.3695921196353469
 31
0.0
  0
LINE
  5
5AC6C
  8
0
 62
     0
 10
18.99244620093241
 20
5.469029010739705
 30
0.0
 11
18.99244620093241
 21
5.469029010739705
 31
0.0
  0
LINE
  5
5AC6D
  8
0
 62
     0
 10
19.09188309203677
 20
5.5684659018440641
 30
0.0
 11
19.09188309203677
 21
5.5684659018440641
 31
0.0
  0
LINE
  5
5AC6E
  8
0
 62
     0
 10
19.191319983141121
 20
5.6679027929484223
 30
0.0
 11
19.191319983141121
 21
5.6679027929484223
 31
0.0
  0
LINE
  5
5AC6F
  8
0
 62
     0
 10
19.290756874245481
 20
5.7673396840527804
 30
0.0
 11
19.290756874245481
 21
5.7673396840527804
 31
0.0
  0
LINE
  5
5AC70
  8
0
 62
     0
 10
19.390193765349839
 20
5.8667765751571377
 30
0.0
 11
19.390193765349839
 21
5.8667765751571377
 31
0.0
  0
LINE
  5
5AC71
  8
0
 62
     0
 10
19.489630656454189
 20
5.9662134662614958
 30
0.0
 11
19.489630656454189
 21
5.9662134662614958
 31
0.0
  0
LINE
  5
5AC72
  8
0
 62
     0
 10
19.58906754755855
 20
6.065650357365854
 30
0.0
 11
19.58906754755855
 21
6.065650357365854
 31
0.0
  0
LINE
  5
5AC73
  8
0
 62
     0
 10
19.68850443866291
 20
6.1650872484702131
 30
0.0
 11
19.68850443866291
 21
6.1650872484702131
 31
0.0
  0
LINE
  5
5AC74
  8
0
 62
     0
 10
19.787941329767271
 20
6.2645241395745712
 30
0.0
 11
19.787941329767271
 21
6.2645241395745712
 31
0.0
  0
LINE
  5
5AC75
  8
0
 62
     0
 10
19.887378220871621
 20
6.3639610306789294
 30
0.0
 11
19.887378220871621
 21
6.3639610306789294
 31
0.0
  0
LINE
  5
5AC76
  8
0
 62
     0
 10
19.986815111975979
 20
6.4633979217832866
 30
0.0
 11
19.986815111975979
 21
6.4633979217832866
 31
0.0
  0
LINE
  5
5AC77
  8
0
 62
     0
 10
20.08625200308034
 20
6.5628348128876448
 30
0.0
 11
20.08625200308034
 21
6.5628348128876448
 31
0.0
  0
LINE
  5
5AC78
  8
0
 62
     0
 10
20.1856888941847
 20
6.662271703992003
 30
0.0
 11
20.1856888941847
 21
6.662271703992003
 31
0.0
  0
LINE
  5
5AC79
  8
0
 62
     0
 10
20.285125785289051
 20
6.761708595096362
 30
0.0
 11
20.285125785289051
 21
6.761708595096362
 31
0.0
  0
LINE
  5
5AC7A
  8
0
 62
     0
 10
20.384562676393411
 20
6.8611454862007202
 30
0.0
 11
20.384562676393411
 21
6.8611454862007202
 31
0.0
  0
LINE
  5
5AC7B
  8
0
 62
     0
 10
20.483999567497769
 20
6.9605823773050783
 30
0.0
 11
20.483999567497769
 21
6.9605823773050783
 31
0.0
  0
LINE
  5
5AC7C
  8
0
 62
     0
 10
20.583436458602129
 20
7.0600192684094356
 30
0.0
 11
20.583436458602129
 21
7.0600192684094356
 31
0.0
  0
LINE
  5
5AC7D
  8
0
 62
     0
 10
20.68287334970648
 20
7.1594561595137938
 30
0.0
 11
20.68287334970648
 21
7.1594561595137938
 31
0.0
  0
LINE
  5
5AC7E
  8
0
 62
     0
 10
20.78231024081084
 20
7.2588930506181519
 30
0.0
 11
20.78231024081084
 21
7.2588930506181519
 31
0.0
  0
LINE
  5
5AC7F
  8
0
 62
     0
 10
20.881747131915201
 20
7.3583299417225101
 30
0.0
 11
20.881747131915201
 21
7.3583299417225101
 31
0.0
  0
LINE
  5
5AC80
  8
0
 62
     0
 10
20.981184023019559
 20
7.4577668328268691
 30
0.0
 11
20.981184023019559
 21
7.4577668328268691
 31
0.0
  0
LINE
  5
5AC81
  8
0
 62
     0
 10
21.080620914123909
 20
7.5572037239312273
 30
0.0
 11
21.080620914123909
 21
7.5572037239312273
 31
0.0
  0
LINE
  5
5AC82
  8
0
 62
     0
 10
21.18005780522827
 20
7.6566406150355846
 30
0.0
 11
21.18005780522827
 21
7.6566406150355846
 31
0.0
  0
LINE
  5
5AC83
  8
0
 62
     0
 10
21.27949469633263
 20
7.7560775061399427
 30
0.0
 11
21.27949469633263
 21
7.7560775061399427
 31
0.0
  0
LINE
  5
5AC84
  8
0
 62
     0
 10
21.378931587436991
 20
7.8555143972443009
 30
0.0
 11
21.378931587436991
 21
7.8555143972443009
 31
0.0
  0
LINE
  5
5AC85
  8
0
 62
     0
 10
21.478368478541341
 20
7.9549512883486591
 30
0.0
 11
21.478368478541341
 21
7.9549512883486591
 31
0.0
  0
LINE
  5
5AC86
  8
0
 62
     0
 10
21.577805369645699
 20
8.0543881794530172
 30
0.0
 11
21.577805369645699
 21
8.0543881794530172
 31
0.0
  0
LINE
  5
5AC87
  8
0
 62
     0
 10
21.677242260750059
 20
8.153825070557378
 30
0.0
 11
21.677242260750059
 21
8.153825070557378
 31
0.0
  0
LINE
  5
5AC88
  8
0
 62
     0
 10
21.77667915185441
 20
8.2532619616617371
 30
0.0
 11
21.77667915185441
 21
8.2532619616617371
 31
0.0
  0
LINE
  5
5AC89
  8
0
 62
     0
 10
21.87611604295877
 20
8.3526988527660961
 30
0.0
 11
21.87611604295877
 21
8.3526988527660961
 31
0.0
  0
LINE
  5
5AC8A
  8
0
 62
     0
 10
21.975552934063131
 20
8.4521357438704552
 30
0.0
 11
21.975552934063131
 21
8.4521357438704552
 31
0.0
  0
LINE
  5
5AC8B
  8
0
 62
     0
 10
22.074989825167489
 20
8.5515726349748142
 30
0.0
 11
22.074989825167489
 21
8.5515726349748142
 31
0.0
  0
LINE
  5
5AC8C
  8
0
 62
     0
 10
22.174426716271839
 20
8.6510095260791733
 30
0.0
 11
22.174426716271839
 21
8.6510095260791733
 31
0.0
  0
LINE
  5
5AC8D
  8
0
 62
     0
 10
22.2738636073762
 20
8.7504464171835323
 30
0.0
 11
22.2738636073762
 21
8.7504464171835323
 31
0.0
  0
LINE
  5
5AC8E
  8
0
 62
     0
 10
22.37330049848056
 20
8.8498833082878914
 30
0.0
 11
22.37330049848056
 21
8.8498833082878914
 31
0.0
  0
LINE
  5
5AC8F
  8
0
 62
     0
 10
22.472737389584921
 20
8.9493201993922504
 30
0.0
 11
22.472737389584921
 21
8.9493201993922504
 31
0.0
  0
LINE
  5
5AC90
  8
0
 62
     0
 10
22.572174280689271
 20
9.0487570904966095
 30
0.0
 11
22.572174280689271
 21
9.0487570904966095
 31
0.0
  0
LINE
  5
5AC91
  8
0
 62
     0
 10
17.351737497710509
 20
4.0271940897265122
 30
0.0
 11
17.351737497710509
 21
4.0271940897265122
 31
0.0
  0
LINE
  5
5AC92
  8
0
 62
     0
 10
17.45117438881487
 20
4.1266309808308703
 30
0.0
 11
17.45117438881487
 21
4.1266309808308703
 31
0.0
  0
LINE
  5
5AC93
  8
0
 62
     0
 10
17.550611279919231
 20
4.2260678719352276
 30
0.0
 11
17.550611279919231
 21
4.2260678719352276
 31
0.0
  0
LINE
  5
5AC94
  8
0
 62
     0
 10
17.650048171023592
 20
4.3255047630395858
 30
0.0
 11
17.650048171023592
 21
4.3255047630395858
 31
0.0
  0
LINE
  5
5AC95
  8
0
 62
     0
 10
17.749485062127938
 20
4.4249416541439439
 30
0.0
 11
17.749485062127938
 21
4.4249416541439439
 31
0.0
  0
LINE
  5
5AC96
  8
0
 62
     0
 10
17.848921953232299
 20
4.5243785452483021
 30
0.0
 11
17.848921953232299
 21
4.5243785452483021
 31
0.0
  0
LINE
  5
5AC97
  8
0
 62
     0
 10
17.94835884433666
 20
4.6238154363526611
 30
0.0
 11
17.94835884433666
 21
4.6238154363526611
 31
0.0
  0
LINE
  5
5AC98
  8
0
 62
     0
 10
18.047795735441021
 20
4.7232523274570193
 30
0.0
 11
18.047795735441021
 21
4.7232523274570193
 31
0.0
  0
LINE
  5
5AC99
  8
0
 62
     0
 10
18.147232626545371
 20
4.8226892185613766
 30
0.0
 11
18.147232626545371
 21
4.8226892185613766
 31
0.0
  0
LINE
  5
5AC9A
  8
0
 62
     0
 10
18.246669517649732
 20
4.9221261096657347
 30
0.0
 11
18.246669517649732
 21
4.9221261096657347
 31
0.0
  0
LINE
  5
5AC9B
  8
0
 62
     0
 10
18.346106408754089
 20
5.0215630007700929
 30
0.0
 11
18.346106408754089
 21
5.0215630007700929
 31
0.0
  0
LINE
  5
5AC9C
  8
0
 62
     0
 10
18.445543299858439
 20
5.120999891874451
 30
0.0
 11
18.445543299858439
 21
5.120999891874451
 31
0.0
  0
LINE
  5
5AC9D
  8
0
 62
     0
 10
18.5449801909628
 20
5.2204367829788101
 30
0.0
 11
18.5449801909628
 21
5.2204367829788101
 31
0.0
  0
LINE
  5
5AC9E
  8
0
 62
     0
 10
18.644417082067161
 20
5.3198736740831682
 30
0.0
 11
18.644417082067161
 21
5.3198736740831682
 31
0.0
  0
LINE
  5
5AC9F
  8
0
 62
     0
 10
18.743853973171511
 20
5.4193105651875264
 30
0.0
 11
18.743853973171511
 21
5.4193105651875264
 31
0.0
  0
LINE
  5
5ACA0
  8
0
 62
     0
 10
18.843290864275868
 20
5.5187474562918837
 30
0.0
 11
18.843290864275868
 21
5.5187474562918837
 31
0.0
  0
LINE
  5
5ACA1
  8
0
 62
     0
 10
18.942727755380229
 20
5.6181843473962418
 30
0.0
 11
18.942727755380229
 21
5.6181843473962418
 31
0.0
  0
LINE
  5
5ACA2
  8
0
 62
     0
 10
19.04216464648459
 20
5.7176212385006
 30
0.0
 11
19.04216464648459
 21
5.7176212385006
 31
0.0
  0
LINE
  5
5ACA3
  8
0
 62
     0
 10
19.141601537588951
 20
5.817058129604959
 30
0.0
 11
19.141601537588951
 21
5.817058129604959
 31
0.0
  0
LINE
  5
5ACA4
  8
0
 62
     0
 10
19.241038428693301
 20
5.9164950207093172
 30
0.0
 11
19.241038428693301
 21
5.9164950207093172
 31
0.0
  0
LINE
  5
5ACA5
  8
0
 62
     0
 10
19.340475319797662
 20
6.0159319118136754
 30
0.0
 11
19.340475319797662
 21
6.0159319118136754
 31
0.0
  0
LINE
  5
5ACA6
  8
0
 62
     0
 10
19.439912210902019
 20
6.1153688029180326
 30
0.0
 11
19.439912210902019
 21
6.1153688029180326
 31
0.0
  0
LINE
  5
5ACA7
  8
0
 62
     0
 10
19.539349102006369
 20
6.2148056940223908
 30
0.0
 11
19.539349102006369
 21
6.2148056940223908
 31
0.0
  0
LINE
  5
5ACA8
  8
0
 62
     0
 10
19.63878599311073
 20
6.314242585126749
 30
0.0
 11
19.63878599311073
 21
6.314242585126749
 31
0.0
  0
LINE
  5
5ACA9
  8
0
 62
     0
 10
19.738222884215091
 20
6.413679476231108
 30
0.0
 11
19.738222884215091
 21
6.413679476231108
 31
0.0
  0
LINE
  5
5ACAA
  8
0
 62
     0
 10
19.837659775319452
 20
6.5131163673354662
 30
0.0
 11
19.837659775319452
 21
6.5131163673354662
 31
0.0
  0
LINE
  5
5ACAB
  8
0
 62
     0
 10
19.937096666423798
 20
6.6125532584398243
 30
0.0
 11
19.937096666423798
 21
6.6125532584398243
 31
0.0
  0
LINE
  5
5ACAC
  8
0
 62
     0
 10
20.036533557528159
 20
6.7119901495441816
 30
0.0
 11
20.036533557528159
 21
6.7119901495441816
 31
0.0
  0
LINE
  5
5ACAD
  8
0
 62
     0
 10
20.13597044863252
 20
6.8114270406485398
 30
0.0
 11
20.13597044863252
 21
6.8114270406485398
 31
0.0
  0
LINE
  5
5ACAE
  8
0
 62
     0
 10
20.235407339736881
 20
6.9108639317528979
 30
0.0
 11
20.235407339736881
 21
6.9108639317528979
 31
0.0
  0
LINE
  5
5ACAF
  8
0
 62
     0
 10
20.334844230841231
 20
7.0103008228572561
 30
0.0
 11
20.334844230841231
 21
7.0103008228572561
 31
0.0
  0
LINE
  5
5ACB0
  8
0
 62
     0
 10
20.434281121945592
 20
7.1097377139616151
 30
0.0
 11
20.434281121945592
 21
7.1097377139616151
 31
0.0
  0
LINE
  5
5ACB1
  8
0
 62
     0
 10
20.533718013049949
 20
7.2091746050659733
 30
0.0
 11
20.533718013049949
 21
7.2091746050659733
 31
0.0
  0
LINE
  5
5ACB2
  8
0
 62
     0
 10
20.63315490415431
 20
7.3086114961703306
 30
0.0
 11
20.63315490415431
 21
7.3086114961703306
 31
0.0
  0
LINE
  5
5ACB3
  8
0
 62
     0
 10
20.73259179525866
 20
7.4080483872746887
 30
0.0
 11
20.73259179525866
 21
7.4080483872746887
 31
0.0
  0
LINE
  5
5ACB4
  8
0
 62
     0
 10
20.832028686363021
 20
7.5074852783790469
 30
0.0
 11
20.832028686363021
 21
7.5074852783790469
 31
0.0
  0
LINE
  5
5ACB5
  8
0
 62
     0
 10
20.931465577467382
 20
7.606922169483405
 30
0.0
 11
20.931465577467382
 21
7.606922169483405
 31
0.0
  0
LINE
  5
5ACB6
  8
0
 62
     0
 10
21.030902468571739
 20
7.7063590605877641
 30
0.0
 11
21.030902468571739
 21
7.7063590605877641
 31
0.0
  0
LINE
  5
5ACB7
  8
0
 62
     0
 10
21.130339359676089
 20
7.8057959516921223
 30
0.0
 11
21.130339359676089
 21
7.8057959516921223
 31
0.0
  0
LINE
  5
5ACB8
  8
0
 62
     0
 10
21.22977625078045
 20
7.9052328427964804
 30
0.0
 11
21.22977625078045
 21
7.9052328427964804
 31
0.0
  0
LINE
  5
5ACB9
  8
0
 62
     0
 10
21.329213141884811
 20
8.0046697339008386
 30
0.0
 11
21.329213141884811
 21
8.0046697339008386
 31
0.0
  0
LINE
  5
5ACBA
  8
0
 62
     0
 10
21.428650032989172
 20
8.1041066250051976
 30
0.0
 11
21.428650032989172
 21
8.1041066250051976
 31
0.0
  0
LINE
  5
5ACBB
  8
0
 62
     0
 10
21.528086924093522
 20
8.2035435161095567
 30
0.0
 11
21.528086924093522
 21
8.2035435161095567
 31
0.0
  0
LINE
  5
5ACBC
  8
0
 62
     0
 10
21.627523815197879
 20
8.3029804072139157
 30
0.0
 11
21.627523815197879
 21
8.3029804072139157
 31
0.0
  0
LINE
  5
5ACBD
  8
0
 62
     0
 10
21.72696070630224
 20
8.4024172983182748
 30
0.0
 11
21.72696070630224
 21
8.4024172983182748
 31
0.0
  0
LINE
  5
5ACBE
  8
0
 62
     0
 10
21.82639759740659
 20
8.5018541894226338
 30
0.0
 11
21.82639759740659
 21
8.5018541894226338
 31
0.0
  0
LINE
  5
5ACBF
  8
0
 62
     0
 10
21.925834488510951
 20
8.6012910805269929
 30
0.0
 11
21.925834488510951
 21
8.6012910805269929
 31
0.0
  0
LINE
  5
5ACC0
  8
0
 62
     0
 10
22.025271379615312
 20
8.7007279716313501
 30
0.0
 11
22.025271379615312
 21
8.7007279716313501
 31
0.0
  0
LINE
  5
5ACC1
  8
0
 62
     0
 10
22.124708270719669
 20
8.8001648627357092
 30
0.0
 11
22.124708270719669
 21
8.8001648627357092
 31
0.0
  0
LINE
  5
5ACC2
  8
0
 62
     0
 10
22.224145161824019
 20
8.89960175384007
 30
0.0
 11
22.224145161824019
 21
8.89960175384007
 31
0.0
  0
LINE
  5
5ACC3
  8
0
 62
     0
 10
22.32358205292838
 20
8.9990386449444291
 30
0.0
 11
22.32358205292838
 21
8.9990386449444291
 31
0.0
  0
LINE
  5
5ACC4
  8
0
 62
     0
 10
22.423018944032741
 20
9.0984755360487881
 30
0.0
 11
22.423018944032741
 21
9.0984755360487881
 31
0.0
  0
LINE
  5
5ACC5
  8
0
 62
     0
 10
22.522455835137102
 20
9.1979124271531472
 30
0.0
 11
22.522455835137102
 21
9.1979124271531472
 31
0.0
  0
LINE
  5
5ACC6
  8
0
 62
     0
 10
22.621892726241452
 20
9.2973493182575062
 30
0.0
 11
22.621892726241452
 21
9.2973493182575062
 31
0.0
  0
LINE
  5
5ACC7
  8
0
 62
     0
 10
22.721329617345809
 20
9.3967862093618653
 30
0.0
 11
22.721329617345809
 21
9.3967862093618653
 31
0.0
  0
LINE
  5
5ACC8
  8
0
 62
     0
 10
22.820766508450159
 20
9.4962231004662243
 30
0.0
 11
22.820766508450159
 21
9.4962231004662243
 31
0.0
  0
LINE
  5
5ACC9
  8
0
 62
     0
 10
17.302019052158329
 20
4.1763494263830472
 30
0.0
 11
17.302019052158329
 21
4.1763494263830472
 31
0.0
  0
LINE
  5
5ACCA
  8
0
 62
     0
 10
17.40145594326269
 20
4.2757863174874053
 30
0.0
 11
17.40145594326269
 21
4.2757863174874053
 31
0.0
  0
LINE
  5
5ACCB
  8
0
 62
     0
 10
17.50089283436705
 20
4.3752232085917626
 30
0.0
 11
17.50089283436705
 21
4.3752232085917626
 31
0.0
  0
LINE
  5
5ACCC
  8
0
 62
     0
 10
17.600329725471411
 20
4.4746600996961208
 30
0.0
 11
17.600329725471411
 21
4.4746600996961208
 31
0.0
  0
LINE
  5
5ACCD
  8
0
 62
     0
 10
17.699766616575761
 20
4.5740969908004789
 30
0.0
 11
17.699766616575761
 21
4.5740969908004789
 31
0.0
  0
LINE
  5
5ACCE
  8
0
 62
     0
 10
17.799203507680119
 20
4.6735338819048371
 30
0.0
 11
17.799203507680119
 21
4.6735338819048371
 31
0.0
  0
LINE
  5
5ACCF
  8
0
 62
     0
 10
17.89864039878448
 20
4.7729707730091961
 30
0.0
 11
17.89864039878448
 21
4.7729707730091961
 31
0.0
  0
LINE
  5
5ACD0
  8
0
 62
     0
 10
17.99807728988884
 20
4.8724076641135543
 30
0.0
 11
17.99807728988884
 21
4.8724076641135543
 31
0.0
  0
LINE
  5
5ACD1
  8
0
 62
     0
 10
18.097514180993191
 20
4.9718445552179116
 30
0.0
 11
18.097514180993191
 21
4.9718445552179116
 31
0.0
  0
LINE
  5
5ACD2
  8
0
 62
     0
 10
18.196951072097551
 20
5.0712814463222697
 30
0.0
 11
18.196951072097551
 21
5.0712814463222697
 31
0.0
  0
LINE
  5
5ACD3
  8
0
 62
     0
 10
18.296387963201909
 20
5.1707183374266279
 30
0.0
 11
18.296387963201909
 21
5.1707183374266279
 31
0.0
  0
LINE
  5
5ACD4
  8
0
 62
     0
 10
18.395824854306259
 20
5.2701552285309861
 30
0.0
 11
18.395824854306259
 21
5.2701552285309861
 31
0.0
  0
LINE
  5
5ACD5
  8
0
 62
     0
 10
18.49526174541062
 20
5.3695921196353451
 30
0.0
 11
18.49526174541062
 21
5.3695921196353451
 31
0.0
  0
LINE
  5
5ACD6
  8
0
 62
     0
 10
18.59469863651498
 20
5.4690290107397033
 30
0.0
 11
18.59469863651498
 21
5.4690290107397033
 31
0.0
  0
LINE
  5
5ACD7
  8
0
 62
     0
 10
18.694135527619331
 20
5.5684659018440614
 30
0.0
 11
18.694135527619331
 21
5.5684659018440614
 31
0.0
  0
LINE
  5
5ACD8
  8
0
 62
     0
 10
18.793572418723691
 20
5.6679027929484187
 30
0.0
 11
18.793572418723691
 21
5.6679027929484187
 31
0.0
  0
LINE
  5
5ACD9
  8
0
 62
     0
 10
18.893009309828049
 20
5.7673396840527769
 30
0.0
 11
18.893009309828049
 21
5.7673396840527769
 31
0.0
  0
LINE
  5
5ACDA
  8
0
 62
     0
 10
18.99244620093241
 20
5.866776575157135
 30
0.0
 11
18.99244620093241
 21
5.866776575157135
 31
0.0
  0
LINE
  5
5ACDB
  8
0
 62
     0
 10
19.09188309203677
 20
5.9662134662614941
 30
0.0
 11
19.09188309203677
 21
5.9662134662614941
 31
0.0
  0
LINE
  5
5ACDC
  8
0
 62
     0
 10
19.191319983141121
 20
6.0656503573658522
 30
0.0
 11
19.191319983141121
 21
6.0656503573658522
 31
0.0
  0
LINE
  5
5ACDD
  8
0
 62
     0
 10
19.290756874245481
 20
6.1650872484702104
 30
0.0
 11
19.290756874245481
 21
6.1650872484702104
 31
0.0
  0
LINE
  5
5ACDE
  8
0
 62
     0
 10
19.390193765349839
 20
6.2645241395745677
 30
0.0
 11
19.390193765349839
 21
6.2645241395745677
 31
0.0
  0
LINE
  5
5ACDF
  8
0
 62
     0
 10
19.489630656454189
 20
6.3639610306789258
 30
0.0
 11
19.489630656454189
 21
6.3639610306789258
 31
0.0
  0
LINE
  5
5ACE0
  8
0
 62
     0
 10
19.58906754755855
 20
6.463397921783284
 30
0.0
 11
19.58906754755855
 21
6.463397921783284
 31
0.0
  0
LINE
  5
5ACE1
  8
0
 62
     0
 10
19.68850443866291
 20
6.562834812887643
 30
0.0
 11
19.68850443866291
 21
6.562834812887643
 31
0.0
  0
LINE
  5
5ACE2
  8
0
 62
     0
 10
19.787941329767271
 20
6.6622717039920012
 30
0.0
 11
19.787941329767271
 21
6.6622717039920012
 31
0.0
  0
LINE
  5
5ACE3
  8
0
 62
     0
 10
19.887378220871621
 20
6.7617085950963594
 30
0.0
 11
19.887378220871621
 21
6.7617085950963594
 31
0.0
  0
LINE
  5
5ACE4
  8
0
 62
     0
 10
19.986815111975979
 20
6.8611454862007166
 30
0.0
 11
19.986815111975979
 21
6.8611454862007166
 31
0.0
  0
LINE
  5
5ACE5
  8
0
 62
     0
 10
20.08625200308034
 20
6.9605823773050748
 30
0.0
 11
20.08625200308034
 21
6.9605823773050748
 31
0.0
  0
LINE
  5
5ACE6
  8
0
 62
     0
 10
20.1856888941847
 20
7.0600192684094329
 30
0.0
 11
20.1856888941847
 21
7.0600192684094329
 31
0.0
  0
LINE
  5
5ACE7
  8
0
 62
     0
 10
20.285125785289051
 20
7.1594561595137911
 30
0.0
 11
20.285125785289051
 21
7.1594561595137911
 31
0.0
  0
LINE
  5
5ACE8
  8
0
 62
     0
 10
20.384562676393411
 20
7.2588930506181502
 30
0.0
 11
20.384562676393411
 21
7.2588930506181502
 31
0.0
  0
LINE
  5
5ACE9
  8
0
 62
     0
 10
20.483999567497769
 20
7.3583299417225083
 30
0.0
 11
20.483999567497769
 21
7.3583299417225083
 31
0.0
  0
LINE
  5
5ACEA
  8
0
 62
     0
 10
20.583436458602129
 20
7.4577668328268656
 30
0.0
 11
20.583436458602129
 21
7.4577668328268656
 31
0.0
  0
LINE
  5
5ACEB
  8
0
 62
     0
 10
20.68287334970648
 20
7.5572037239312237
 30
0.0
 11
20.68287334970648
 21
7.5572037239312237
 31
0.0
  0
LINE
  5
5ACEC
  8
0
 62
     0
 10
20.78231024081084
 20
7.6566406150355819
 30
0.0
 11
20.78231024081084
 21
7.6566406150355819
 31
0.0
  0
LINE
  5
5ACED
  8
0
 62
     0
 10
20.881747131915201
 20
7.7560775061399401
 30
0.0
 11
20.881747131915201
 21
7.7560775061399401
 31
0.0
  0
LINE
  5
5ACEE
  8
0
 62
     0
 10
20.981184023019559
 20
7.8555143972442991
 30
0.0
 11
20.981184023019559
 21
7.8555143972442991
 31
0.0
  0
LINE
  5
5ACEF
  8
0
 62
     0
 10
21.080620914123909
 20
7.9549512883486573
 30
0.0
 11
21.080620914123909
 21
7.9549512883486573
 31
0.0
  0
LINE
  5
5ACF0
  8
0
 62
     0
 10
21.18005780522827
 20
8.0543881794530154
 30
0.0
 11
21.18005780522827
 21
8.0543881794530154
 31
0.0
  0
LINE
  5
5ACF1
  8
0
 62
     0
 10
21.27949469633263
 20
8.1538250705573745
 30
0.0
 11
21.27949469633263
 21
8.1538250705573745
 31
0.0
  0
LINE
  5
5ACF2
  8
0
 62
     0
 10
21.378931587436991
 20
8.2532619616617335
 30
0.0
 11
21.378931587436991
 21
8.2532619616617335
 31
0.0
  0
LINE
  5
5ACF3
  8
0
 62
     0
 10
21.478368478541341
 20
8.3526988527660926
 30
0.0
 11
21.478368478541341
 21
8.3526988527660926
 31
0.0
  0
LINE
  5
5ACF4
  8
0
 62
     0
 10
21.577805369645699
 20
8.4521357438704516
 30
0.0
 11
21.577805369645699
 21
8.4521357438704516
 31
0.0
  0
LINE
  5
5ACF5
  8
0
 62
     0
 10
21.677242260750059
 20
8.5515726349748107
 30
0.0
 11
21.677242260750059
 21
8.5515726349748107
 31
0.0
  0
LINE
  5
5ACF6
  8
0
 62
     0
 10
21.77667915185441
 20
8.6510095260791697
 30
0.0
 11
21.77667915185441
 21
8.6510095260791697
 31
0.0
  0
LINE
  5
5ACF7
  8
0
 62
     0
 10
21.87611604295877
 20
8.7504464171835288
 30
0.0
 11
21.87611604295877
 21
8.7504464171835288
 31
0.0
  0
LINE
  5
5ACF8
  8
0
 62
     0
 10
21.975552934063131
 20
8.8498833082878878
 30
0.0
 11
21.975552934063131
 21
8.8498833082878878
 31
0.0
  0
LINE
  5
5ACF9
  8
0
 62
     0
 10
22.074989825167489
 20
8.9493201993922469
 30
0.0
 11
22.074989825167489
 21
8.9493201993922469
 31
0.0
  0
LINE
  5
5ACFA
  8
0
 62
     0
 10
22.174426716271839
 20
9.0487570904966041
 30
0.0
 11
22.174426716271839
 21
9.0487570904966041
 31
0.0
  0
LINE
  5
5ACFB
  8
0
 62
     0
 10
22.2738636073762
 20
9.1481939816009632
 30
0.0
 11
22.2738636073762
 21
9.1481939816009632
 31
0.0
  0
LINE
  5
5ACFC
  8
0
 62
     0
 10
22.37330049848056
 20
9.247630872705324
 30
0.0
 11
22.37330049848056
 21
9.247630872705324
 31
0.0
  0
LINE
  5
5ACFD
  8
0
 62
     0
 10
22.472737389584921
 20
9.3470677638096831
 30
0.0
 11
22.472737389584921
 21
9.3470677638096831
 31
0.0
  0
LINE
  5
5ACFE
  8
0
 62
     0
 10
22.572174280689271
 20
9.4465046549140421
 30
0.0
 11
22.572174280689271
 21
9.4465046549140421
 31
0.0
  0
LINE
  5
5ACFF
  8
0
 62
     0
 10
22.671611171793629
 20
9.5459415460184012
 30
0.0
 11
22.671611171793629
 21
9.5459415460184012
 31
0.0
  0
LINE
  5
5AD00
  8
0
 62
     0
 10
22.771048062897979
 20
9.6453784371227602
 30
0.0
 11
22.771048062897979
 21
9.6453784371227602
 31
0.0
  0
LINE
  5
5AD01
  8
0
 62
     0
 10
22.87048495400235
 20
9.7448153282271193
 30
0.0
 11
22.87048495400235
 21
9.7448153282271193
 31
0.0
  0
LINE
  5
5AD02
  8
0
 62
     0
 10
22.9699218451067
 20
9.8442522193314783
 30
0.0
 11
22.9699218451067
 21
9.8442522193314783
 31
0.0
  0
LINE
  5
5AD03
  8
0
 62
     0
 10
23.069358736211061
 20
9.9436891104358374
 30
0.0
 11
23.069358736211061
 21
9.9436891104358374
 31
0.0
  0
LINE
  5
5AD04
  8
0
 62
     0
 10
17.351737497710509
 20
4.424941654143943
 30
0.0
 11
17.351737497710509
 21
4.424941654143943
 31
0.0
  0
LINE
  5
5AD05
  8
0
 62
     0
 10
17.45117438881487
 20
4.5243785452483012
 30
0.0
 11
17.45117438881487
 21
4.5243785452483012
 31
0.0
  0
LINE
  5
5AD06
  8
0
 62
     0
 10
17.550611279919231
 20
4.6238154363526593
 30
0.0
 11
17.550611279919231
 21
4.6238154363526593
 31
0.0
  0
LINE
  5
5AD07
  8
0
 62
     0
 10
17.650048171023581
 20
4.7232523274570166
 30
0.0
 11
17.650048171023581
 21
4.7232523274570166
 31
0.0
  0
LINE
  5
5AD08
  8
0
 62
     0
 10
17.749485062127938
 20
4.8226892185613748
 30
0.0
 11
17.749485062127938
 21
4.8226892185613748
 31
0.0
  0
LINE
  5
5AD09
  8
0
 62
     0
 10
17.848921953232299
 20
4.9221261096657329
 30
0.0
 11
17.848921953232299
 21
4.9221261096657329
 31
0.0
  0
LINE
  5
5AD0A
  8
0
 62
     0
 10
17.948358844336649
 20
5.0215630007700911
 30
0.0
 11
17.948358844336649
 21
5.0215630007700911
 31
0.0
  0
LINE
  5
5AD0B
  8
0
 62
     0
 10
18.04779573544101
 20
5.1209998918744501
 30
0.0
 11
18.04779573544101
 21
5.1209998918744501
 31
0.0
  0
LINE
  5
5AD0C
  8
0
 62
     0
 10
18.147232626545371
 20
5.2204367829788083
 30
0.0
 11
18.147232626545371
 21
5.2204367829788083
 31
0.0
  0
LINE
  5
5AD0D
  8
0
 62
     0
 10
18.246669517649732
 20
5.3198736740831656
 30
0.0
 11
18.246669517649732
 21
5.3198736740831656
 31
0.0
  0
LINE
  5
5AD0E
  8
0
 62
     0
 10
18.346106408754078
 20
5.4193105651875237
 30
0.0
 11
18.346106408754078
 21
5.4193105651875237
 31
0.0
  0
LINE
  5
5AD0F
  8
0
 62
     0
 10
18.445543299858439
 20
5.5187474562918819
 30
0.0
 11
18.445543299858439
 21
5.5187474562918819
 31
0.0
  0
LINE
  5
5AD10
  8
0
 62
     0
 10
18.5449801909628
 20
5.6181843473962401
 30
0.0
 11
18.5449801909628
 21
5.6181843473962401
 31
0.0
  0
LINE
  5
5AD11
  8
0
 62
     0
 10
18.64441708206715
 20
5.7176212385005991
 30
0.0
 11
18.64441708206715
 21
5.7176212385005991
 31
0.0
  0
LINE
  5
5AD12
  8
0
 62
     0
 10
18.743853973171511
 20
5.8170581296049573
 30
0.0
 11
18.743853973171511
 21
5.8170581296049573
 31
0.0
  0
LINE
  5
5AD13
  8
0
 62
     0
 10
18.843290864275868
 20
5.9164950207093154
 30
0.0
 11
18.843290864275868
 21
5.9164950207093154
 31
0.0
  0
LINE
  5
5AD14
  8
0
 62
     0
 10
18.942727755380229
 20
6.0159319118136727
 30
0.0
 11
18.942727755380229
 21
6.0159319118136727
 31
0.0
  0
LINE
  5
5AD15
  8
0
 62
     0
 10
19.042164646484579
 20
6.1153688029180309
 30
0.0
 11
19.042164646484579
 21
6.1153688029180309
 31
0.0
  0
LINE
  5
5AD16
  8
0
 62
     0
 10
19.14160153758894
 20
6.214805694022389
 30
0.0
 11
19.14160153758894
 21
6.214805694022389
 31
0.0
  0
LINE
  5
5AD17
  8
0
 62
     0
 10
19.241038428693301
 20
6.3142425851267481
 30
0.0
 11
19.241038428693301
 21
6.3142425851267481
 31
0.0
  0
LINE
  5
5AD18
  8
0
 62
     0
 10
19.340475319797662
 20
6.4136794762311062
 30
0.0
 11
19.340475319797662
 21
6.4136794762311062
 31
0.0
  0
LINE
  5
5AD19
  8
0
 62
     0
 10
19.439912210902008
 20
6.5131163673354644
 30
0.0
 11
19.439912210902008
 21
6.5131163673354644
 31
0.0
  0
LINE
  5
5AD1A
  8
0
 62
     0
 10
19.539349102006369
 20
6.6125532584398217
 30
0.0
 11
19.539349102006369
 21
6.6125532584398217
 31
0.0
  0
LINE
  5
5AD1B
  8
0
 62
     0
 10
19.63878599311073
 20
6.7119901495441798
 30
0.0
 11
19.63878599311073
 21
6.7119901495441798
 31
0.0
  0
LINE
  5
5AD1C
  8
0
 62
     0
 10
19.738222884215091
 20
6.811427040648538
 30
0.0
 11
19.738222884215091
 21
6.811427040648538
 31
0.0
  0
LINE
  5
5AD1D
  8
0
 62
     0
 10
19.837659775319441
 20
6.910863931752897
 30
0.0
 11
19.837659775319441
 21
6.910863931752897
 31
0.0
  0
LINE
  5
5AD1E
  8
0
 62
     0
 10
19.937096666423798
 20
7.0103008228572552
 30
0.0
 11
19.937096666423798
 21
7.0103008228572552
 31
0.0
  0
LINE
  5
5AD1F
  8
0
 62
     0
 10
20.036533557528159
 20
7.1097377139616134
 30
0.0
 11
20.036533557528159
 21
7.1097377139616134
 31
0.0
  0
LINE
  5
5AD20
  8
0
 62
     0
 10
20.13597044863252
 20
7.2091746050659706
 30
0.0
 11
20.13597044863252
 21
7.2091746050659706
 31
0.0
  0
LINE
  5
5AD21
  8
0
 62
     0
 10
20.23540733973687
 20
7.3086114961703288
 30
0.0
 11
20.23540733973687
 21
7.3086114961703288
 31
0.0
  0
LINE
  5
5AD22
  8
0
 62
     0
 10
20.334844230841231
 20
7.408048387274687
 30
0.0
 11
20.334844230841231
 21
7.408048387274687
 31
0.0
  0
LINE
  5
5AD23
  8
0
 62
     0
 10
20.434281121945592
 20
7.507485278379046
 30
0.0
 11
20.434281121945592
 21
7.507485278379046
 31
0.0
  0
LINE
  5
5AD24
  8
0
 62
     0
 10
20.533718013049949
 20
7.6069221694834042
 30
0.0
 11
20.533718013049949
 21
7.6069221694834042
 31
0.0
  0
LINE
  5
5AD25
  8
0
 62
     0
 10
20.633154904154299
 20
7.7063590605877623
 30
0.0
 11
20.633154904154299
 21
7.7063590605877623
 31
0.0
  0
LINE
  5
5AD26
  8
0
 62
     0
 10
20.73259179525866
 20
7.8057959516921196
 30
0.0
 11
20.73259179525866
 21
7.8057959516921196
 31
0.0
  0
LINE
  5
5AD27
  8
0
 62
     0
 10
20.832028686363021
 20
7.9052328427964778
 30
0.0
 11
20.832028686363021
 21
7.9052328427964778
 31
0.0
  0
LINE
  5
5AD28
  8
0
 62
     0
 10
20.931465577467382
 20
8.0046697339008368
 30
0.0
 11
20.931465577467382
 21
8.0046697339008368
 31
0.0
  0
LINE
  5
5AD29
  8
0
 62
     0
 10
21.030902468571728
 20
8.1041066250051959
 30
0.0
 11
21.030902468571728
 21
8.1041066250051959
 31
0.0
  0
LINE
  5
5AD2A
  8
0
 62
     0
 10
21.130339359676089
 20
8.2035435161095531
 30
0.0
 11
21.130339359676089
 21
8.2035435161095531
 31
0.0
  0
LINE
  5
5AD2B
  8
0
 62
     0
 10
21.229776250780439
 20
8.3029804072139122
 30
0.0
 11
21.229776250780439
 21
8.3029804072139122
 31
0.0
  0
LINE
  5
5AD2C
  8
0
 62
     0
 10
21.329213141884811
 20
8.4024172983182712
 30
0.0
 11
21.329213141884811
 21
8.4024172983182712
 31
0.0
  0
LINE
  5
5AD2D
  8
0
 62
     0
 10
21.428650032989161
 20
8.501854189422632
 30
0.0
 11
21.428650032989161
 21
8.501854189422632
 31
0.0
  0
LINE
  5
5AD2E
  8
0
 62
     0
 10
21.528086924093522
 20
8.6012910805269911
 30
0.0
 11
21.528086924093522
 21
8.6012910805269911
 31
0.0
  0
LINE
  5
5AD2F
  8
0
 62
     0
 10
21.627523815197868
 20
8.7007279716313501
 30
0.0
 11
21.627523815197868
 21
8.7007279716313501
 31
0.0
  0
LINE
  5
5AD30
  8
0
 62
     0
 10
21.726960706302229
 20
8.8001648627357092
 30
0.0
 11
21.726960706302229
 21
8.8001648627357092
 31
0.0
  0
LINE
  5
5AD31
  8
0
 62
     0
 10
21.82639759740659
 20
8.8996017538400682
 30
0.0
 11
21.82639759740659
 21
8.8996017538400682
 31
0.0
  0
LINE
  5
5AD32
  8
0
 62
     0
 10
21.925834488510951
 20
8.9990386449444273
 30
0.0
 11
21.925834488510951
 21
8.9990386449444273
 31
0.0
  0
LINE
  5
5AD33
  8
0
 62
     0
 10
22.025271379615301
 20
9.0984755360487863
 30
0.0
 11
22.025271379615301
 21
9.0984755360487863
 31
0.0
  0
LINE
  5
5AD34
  8
0
 62
     0
 10
22.124708270719658
 20
9.1979124271531454
 30
0.0
 11
22.124708270719658
 21
9.1979124271531454
 31
0.0
  0
LINE
  5
5AD35
  8
0
 62
     0
 10
22.224145161824019
 20
9.2973493182575044
 30
0.0
 11
22.224145161824019
 21
9.2973493182575044
 31
0.0
  0
LINE
  5
5AD36
  8
0
 62
     0
 10
22.32358205292838
 20
9.3967862093618635
 30
0.0
 11
22.32358205292838
 21
9.3967862093618635
 31
0.0
  0
LINE
  5
5AD37
  8
0
 62
     0
 10
22.42301894403273
 20
9.4962231004662225
 30
0.0
 11
22.42301894403273
 21
9.4962231004662225
 31
0.0
  0
LINE
  5
5AD38
  8
0
 62
     0
 10
22.522455835137091
 20
9.5956599915705816
 30
0.0
 11
22.522455835137091
 21
9.5956599915705816
 31
0.0
  0
LINE
  5
5AD39
  8
0
 62
     0
 10
22.621892726241452
 20
9.6950968826749406
 30
0.0
 11
22.621892726241452
 21
9.6950968826749406
 31
0.0
  0
LINE
  5
5AD3A
  8
0
 62
     0
 10
22.721329617345798
 20
9.7945337737792997
 30
0.0
 11
22.721329617345798
 21
9.7945337737792997
 31
0.0
  0
LINE
  5
5AD3B
  8
0
 62
     0
 10
22.820766508450159
 20
9.8939706648836587
 30
0.0
 11
22.820766508450159
 21
9.8939706648836587
 31
0.0
  0
LINE
  5
5AD3C
  8
0
 62
     0
 10
22.92020339955452
 20
9.9934075559880178
 30
0.0
 11
22.92020339955452
 21
9.9934075559880178
 31
0.0
  0
LINE
  5
5AD3D
  8
0
 62
     0
 10
23.019640290658881
 20
10.09284444709237
 30
0.0
 11
23.019640290658881
 21
10.09284444709237
 31
0.0
  0
LINE
  5
5AD3E
  8
0
 62
     0
 10
23.119077181763231
 20
10.192281338196731
 30
0.0
 11
23.119077181763231
 21
10.192281338196731
 31
0.0
  0
LINE
  5
5AD3F
  8
0
 62
     0
 10
23.218514072867588
 20
10.29171822930109
 30
0.0
 11
23.218514072867588
 21
10.29171822930109
 31
0.0
  0
LINE
  5
5AD40
  8
0
 62
     0
 10
23.317950963971949
 20
10.39115512040545
 30
0.0
 11
23.317950963971949
 21
10.39115512040545
 31
0.0
  0
LINE
  5
5AD41
  8
0
 62
     0
 10
23.41738785507631
 20
10.490592011509809
 30
0.0
 11
23.41738785507631
 21
10.490592011509809
 31
0.0
  0
LINE
  5
5AD42
  8
0
 62
     0
 10
17.600329725471411
 20
4.8724076641135561
 30
0.0
 11
17.600329725471411
 21
4.8724076641135561
 31
0.0
  0
LINE
  5
5AD43
  8
0
 62
     0
 10
17.699766616575761
 20
4.9718445552179142
 30
0.0
 11
17.699766616575761
 21
4.9718445552179142
 31
0.0
  0
LINE
  5
5AD44
  8
0
 62
     0
 10
17.799203507680119
 20
5.0712814463222724
 30
0.0
 11
17.799203507680119
 21
5.0712814463222724
 31
0.0
  0
LINE
  5
5AD45
  8
0
 62
     0
 10
17.89864039878448
 20
5.1707183374266297
 30
0.0
 11
17.89864039878448
 21
5.1707183374266297
 31
0.0
  0
LINE
  5
5AD46
  8
0
 62
     0
 10
17.99807728988884
 20
5.2701552285309878
 30
0.0
 11
17.99807728988884
 21
5.2701552285309878
 31
0.0
  0
LINE
  5
5AD47
  8
0
 62
     0
 10
18.097514180993191
 20
5.369592119635346
 30
0.0
 11
18.097514180993191
 21
5.369592119635346
 31
0.0
  0
LINE
  5
5AD48
  8
0
 62
     0
 10
18.196951072097551
 20
5.469029010739705
 30
0.0
 11
18.196951072097551
 21
5.469029010739705
 31
0.0
  0
LINE
  5
5AD49
  8
0
 62
     0
 10
18.296387963201909
 20
5.5684659018440632
 30
0.0
 11
18.296387963201909
 21
5.5684659018440632
 31
0.0
  0
LINE
  5
5AD4A
  8
0
 62
     0
 10
18.395824854306259
 20
5.6679027929484214
 30
0.0
 11
18.395824854306259
 21
5.6679027929484214
 31
0.0
  0
LINE
  5
5AD4B
  8
0
 62
     0
 10
18.49526174541062
 20
5.7673396840527786
 30
0.0
 11
18.49526174541062
 21
5.7673396840527786
 31
0.0
  0
LINE
  5
5AD4C
  8
0
 62
     0
 10
18.59469863651498
 20
5.8667765751571368
 30
0.0
 11
18.59469863651498
 21
5.8667765751571368
 31
0.0
  0
LINE
  5
5AD4D
  8
0
 62
     0
 10
18.694135527619331
 20
5.966213466261495
 30
0.0
 11
18.694135527619331
 21
5.966213466261495
 31
0.0
  0
LINE
  5
5AD4E
  8
0
 62
     0
 10
18.793572418723691
 20
6.065650357365854
 30
0.0
 11
18.793572418723691
 21
6.065650357365854
 31
0.0
  0
LINE
  5
5AD4F
  8
0
 62
     0
 10
18.893009309828049
 20
6.1650872484702122
 30
0.0
 11
18.893009309828049
 21
6.1650872484702122
 31
0.0
  0
LINE
  5
5AD50
  8
0
 62
     0
 10
18.99244620093241
 20
6.2645241395745703
 30
0.0
 11
18.99244620093241
 21
6.2645241395745703
 31
0.0
  0
LINE
  5
5AD51
  8
0
 62
     0
 10
19.09188309203677
 20
6.3639610306789276
 30
0.0
 11
19.09188309203677
 21
6.3639610306789276
 31
0.0
  0
LINE
  5
5AD52
  8
0
 62
     0
 10
19.191319983141121
 20
6.4633979217832858
 30
0.0
 11
19.191319983141121
 21
6.4633979217832858
 31
0.0
  0
LINE
  5
5AD53
  8
0
 62
     0
 10
19.290756874245481
 20
6.5628348128876439
 30
0.0
 11
19.290756874245481
 21
6.5628348128876439
 31
0.0
  0
LINE
  5
5AD54
  8
0
 62
     0
 10
19.390193765349839
 20
6.6622717039920021
 30
0.0
 11
19.390193765349839
 21
6.6622717039920021
 31
0.0
  0
LINE
  5
5AD55
  8
0
 62
     0
 10
19.489630656454189
 20
6.7617085950963611
 30
0.0
 11
19.489630656454189
 21
6.7617085950963611
 31
0.0
  0
LINE
  5
5AD56
  8
0
 62
     0
 10
19.58906754755855
 20
6.8611454862007193
 30
0.0
 11
19.58906754755855
 21
6.8611454862007193
 31
0.0
  0
LINE
  5
5AD57
  8
0
 62
     0
 10
19.68850443866291
 20
6.9605823773050766
 30
0.0
 11
19.68850443866291
 21
6.9605823773050766
 31
0.0
  0
LINE
  5
5AD58
  8
0
 62
     0
 10
19.787941329767271
 20
7.0600192684094347
 30
0.0
 11
19.787941329767271
 21
7.0600192684094347
 31
0.0
  0
LINE
  5
5AD59
  8
0
 62
     0
 10
19.887378220871621
 20
7.1594561595137929
 30
0.0
 11
19.887378220871621
 21
7.1594561595137929
 31
0.0
  0
LINE
  5
5AD5A
  8
0
 62
     0
 10
19.986815111975979
 20
7.258893050618151
 30
0.0
 11
19.986815111975979
 21
7.258893050618151
 31
0.0
  0
LINE
  5
5AD5B
  8
0
 62
     0
 10
20.08625200308034
 20
7.3583299417225101
 30
0.0
 11
20.08625200308034
 21
7.3583299417225101
 31
0.0
  0
LINE
  5
5AD5C
  8
0
 62
     0
 10
20.1856888941847
 20
7.4577668328268683
 30
0.0
 11
20.1856888941847
 21
7.4577668328268683
 31
0.0
  0
LINE
  5
5AD5D
  8
0
 62
     0
 10
20.285125785289051
 20
7.5572037239312264
 30
0.0
 11
20.285125785289051
 21
7.5572037239312264
 31
0.0
  0
LINE
  5
5AD5E
  8
0
 62
     0
 10
20.384562676393411
 20
7.6566406150355837
 30
0.0
 11
20.384562676393411
 21
7.6566406150355837
 31
0.0
  0
LINE
  5
5AD5F
  8
0
 62
     0
 10
20.483999567497769
 20
7.7560775061399418
 30
0.0
 11
20.483999567497769
 21
7.7560775061399418
 31
0.0
  0
LINE
  5
5AD60
  8
0
 62
     0
 10
20.583436458602129
 20
7.8555143972443
 30
0.0
 11
20.583436458602129
 21
7.8555143972443
 31
0.0
  0
LINE
  5
5AD61
  8
0
 62
     0
 10
20.68287334970648
 20
7.9549512883486591
 30
0.0
 11
20.68287334970648
 21
7.9549512883486591
 31
0.0
  0
LINE
  5
5AD62
  8
0
 62
     0
 10
20.78231024081084
 20
8.0543881794530172
 30
0.0
 11
20.78231024081084
 21
8.0543881794530172
 31
0.0
  0
LINE
  5
5AD63
  8
0
 62
     0
 10
20.881747131915201
 20
8.1538250705573763
 30
0.0
 11
20.881747131915201
 21
8.1538250705573763
 31
0.0
  0
LINE
  5
5AD64
  8
0
 62
     0
 10
20.981184023019559
 20
8.2532619616617353
 30
0.0
 11
20.981184023019559
 21
8.2532619616617353
 31
0.0
  0
LINE
  5
5AD65
  8
0
 62
     0
 10
21.080620914123909
 20
8.3526988527660944
 30
0.0
 11
21.080620914123909
 21
8.3526988527660944
 31
0.0
  0
LINE
  5
5AD66
  8
0
 62
     0
 10
21.18005780522827
 20
8.4521357438704534
 30
0.0
 11
21.18005780522827
 21
8.4521357438704534
 31
0.0
  0
LINE
  5
5AD67
  8
0
 62
     0
 10
21.27949469633263
 20
8.5515726349748125
 30
0.0
 11
21.27949469633263
 21
8.5515726349748125
 31
0.0
  0
LINE
  5
5AD68
  8
0
 62
     0
 10
21.378931587436991
 20
8.6510095260791715
 30
0.0
 11
21.378931587436991
 21
8.6510095260791715
 31
0.0
  0
LINE
  5
5AD69
  8
0
 62
     0
 10
21.478368478541341
 20
8.7504464171835306
 30
0.0
 11
21.478368478541341
 21
8.7504464171835306
 31
0.0
  0
LINE
  5
5AD6A
  8
0
 62
     0
 10
21.577805369645699
 20
8.8498833082878896
 30
0.0
 11
21.577805369645699
 21
8.8498833082878896
 31
0.0
  0
LINE
  5
5AD6B
  8
0
 62
     0
 10
21.677242260750059
 20
8.9493201993922487
 30
0.0
 11
21.677242260750059
 21
8.9493201993922487
 31
0.0
  0
LINE
  5
5AD6C
  8
0
 62
     0
 10
21.77667915185441
 20
9.0487570904966077
 30
0.0
 11
21.77667915185441
 21
9.0487570904966077
 31
0.0
  0
LINE
  5
5AD6D
  8
0
 62
     0
 10
21.87611604295877
 20
9.1481939816009668
 30
0.0
 11
21.87611604295877
 21
9.1481939816009668
 31
0.0
  0
LINE
  5
5AD6E
  8
0
 62
     0
 10
21.975552934063131
 20
9.2476308727053258
 30
0.0
 11
21.975552934063131
 21
9.2476308727053258
 31
0.0
  0
LINE
  5
5AD6F
  8
0
 62
     0
 10
22.074989825167489
 20
9.3470677638096848
 30
0.0
 11
22.074989825167489
 21
9.3470677638096848
 31
0.0
  0
LINE
  5
5AD70
  8
0
 62
     0
 10
22.174426716271839
 20
9.4465046549140421
 30
0.0
 11
22.174426716271839
 21
9.4465046549140421
 31
0.0
  0
LINE
  5
5AD71
  8
0
 62
     0
 10
22.2738636073762
 20
9.5459415460184012
 30
0.0
 11
22.2738636073762
 21
9.5459415460184012
 31
0.0
  0
LINE
  5
5AD72
  8
0
 62
     0
 10
22.37330049848056
 20
9.6453784371227602
 30
0.0
 11
22.37330049848056
 21
9.6453784371227602
 31
0.0
  0
LINE
  5
5AD73
  8
0
 62
     0
 10
22.472737389584921
 20
9.744815328227121
 30
0.0
 11
22.472737389584921
 21
9.744815328227121
 31
0.0
  0
LINE
  5
5AD74
  8
0
 62
     0
 10
22.572174280689271
 20
9.8442522193314801
 30
0.0
 11
22.572174280689271
 21
9.8442522193314801
 31
0.0
  0
LINE
  5
5AD75
  8
0
 62
     0
 10
22.671611171793629
 20
9.9436891104358391
 30
0.0
 11
22.671611171793629
 21
9.9436891104358391
 31
0.0
  0
LINE
  5
5AD76
  8
0
 62
     0
 10
22.771048062897979
 20
10.0431260015402
 30
0.0
 11
22.771048062897979
 21
10.0431260015402
 31
0.0
  0
LINE
  5
5AD77
  8
0
 62
     0
 10
22.87048495400235
 20
10.14256289264455
 30
0.0
 11
22.87048495400235
 21
10.14256289264455
 31
0.0
  0
LINE
  5
5AD78
  8
0
 62
     0
 10
22.9699218451067
 20
10.241999783748909
 30
0.0
 11
22.9699218451067
 21
10.241999783748909
 31
0.0
  0
LINE
  5
5AD79
  8
0
 62
     0
 10
23.069358736211061
 20
10.34143667485327
 30
0.0
 11
23.069358736211061
 21
10.34143667485327
 31
0.0
  0
LINE
  5
5AD7A
  8
0
 62
     0
 10
23.168795627315411
 20
10.440873565957631
 30
0.0
 11
23.168795627315411
 21
10.440873565957631
 31
0.0
  0
LINE
  5
5AD7B
  8
0
 62
     0
 10
23.268232518419769
 20
10.54031045706199
 30
0.0
 11
23.268232518419769
 21
10.54031045706199
 31
0.0
  0
LINE
  5
5AD7C
  8
0
 62
     0
 10
23.36766940952413
 20
10.639747348166351
 30
0.0
 11
23.36766940952413
 21
10.639747348166351
 31
0.0
  0
LINE
  5
5AD7D
  8
0
 62
     0
 10
23.46710630062849
 20
10.73918423927071
 30
0.0
 11
23.46710630062849
 21
10.73918423927071
 31
0.0
  0
LINE
  5
5AD7E
  8
0
 62
     0
 10
23.566543191732841
 20
10.838621130375071
 30
0.0
 11
23.566543191732841
 21
10.838621130375071
 31
0.0
  0
LINE
  5
5AD7F
  8
0
 62
     0
 10
23.665980082837201
 20
10.93805802147943
 30
0.0
 11
23.665980082837201
 21
10.93805802147943
 31
0.0
  0
LINE
  5
5AD80
  8
0
 62
     0
 10
26.052465469341868
 20
13.324543407984009
 30
0.0
 11
26.052465469341868
 21
13.324543407984009
 31
0.0
  0
LINE
  5
5AD81
  8
0
 62
     0
 10
26.151902360446218
 20
13.42398029908836
 30
0.0
 11
26.151902360446218
 21
13.42398029908836
 31
0.0
  0
LINE
  5
5AD82
  8
0
 62
     0
 10
17.848921953232299
 20
5.3198736740831691
 30
0.0
 11
17.848921953232299
 21
5.3198736740831691
 31
0.0
  0
LINE
  5
5AD83
  8
0
 62
     0
 10
17.94835884433666
 20
5.4193105651875273
 30
0.0
 11
17.94835884433666
 21
5.4193105651875273
 31
0.0
  0
LINE
  5
5AD84
  8
0
 62
     0
 10
18.047795735441021
 20
5.5187474562918846
 30
0.0
 11
18.047795735441021
 21
5.5187474562918846
 31
0.0
  0
LINE
  5
5AD85
  8
0
 62
     0
 10
18.147232626545382
 20
5.6181843473962427
 30
0.0
 11
18.147232626545382
 21
5.6181843473962427
 31
0.0
  0
LINE
  5
5AD86
  8
0
 62
     0
 10
18.246669517649732
 20
5.7176212385006009
 30
0.0
 11
18.246669517649732
 21
5.7176212385006009
 31
0.0
  0
LINE
  5
5AD87
  8
0
 62
     0
 10
18.346106408754089
 20
5.817058129604959
 30
0.0
 11
18.346106408754089
 21
5.817058129604959
 31
0.0
  0
LINE
  5
5AD88
  8
0
 62
     0
 10
18.44554329985845
 20
5.9164950207093181
 30
0.0
 11
18.44554329985845
 21
5.9164950207093181
 31
0.0
  0
LINE
  5
5AD89
  8
0
 62
     0
 10
18.544980190962811
 20
6.0159319118136763
 30
0.0
 11
18.544980190962811
 21
6.0159319118136763
 31
0.0
  0
LINE
  5
5AD8A
  8
0
 62
     0
 10
18.644417082067161
 20
6.1153688029180344
 30
0.0
 11
18.644417082067161
 21
6.1153688029180344
 31
0.0
  0
LINE
  5
5AD8B
  8
0
 62
     0
 10
18.743853973171522
 20
6.2148056940223917
 30
0.0
 11
18.743853973171522
 21
6.2148056940223917
 31
0.0
  0
LINE
  5
5AD8C
  8
0
 62
     0
 10
18.843290864275879
 20
6.3142425851267499
 30
0.0
 11
18.843290864275879
 21
6.3142425851267499
 31
0.0
  0
LINE
  5
5AD8D
  8
0
 62
     0
 10
18.942727755380229
 20
6.413679476231108
 30
0.0
 11
18.942727755380229
 21
6.413679476231108
 31
0.0
  0
LINE
  5
5AD8E
  8
0
 62
     0
 10
19.04216464648459
 20
6.5131163673354671
 30
0.0
 11
19.04216464648459
 21
6.5131163673354671
 31
0.0
  0
LINE
  5
5AD8F
  8
0
 62
     0
 10
19.141601537588951
 20
6.6125532584398252
 30
0.0
 11
19.141601537588951
 21
6.6125532584398252
 31
0.0
  0
LINE
  5
5AD90
  8
0
 62
     0
 10
19.241038428693312
 20
6.7119901495441834
 30
0.0
 11
19.241038428693312
 21
6.7119901495441834
 31
0.0
  0
LINE
  5
5AD91
  8
0
 62
     0
 10
19.340475319797662
 20
6.8114270406485407
 30
0.0
 11
19.340475319797662
 21
6.8114270406485407
 31
0.0
  0
LINE
  5
5AD92
  8
0
 62
     0
 10
19.439912210902019
 20
6.9108639317528988
 30
0.0
 11
19.439912210902019
 21
6.9108639317528988
 31
0.0
  0
LINE
  5
5AD93
  8
0
 62
     0
 10
19.53934910200638
 20
7.010300822857257
 30
0.0
 11
19.53934910200638
 21
7.010300822857257
 31
0.0
  0
LINE
  5
5AD94
  8
0
 62
     0
 10
19.638785993110741
 20
7.109737713961616
 30
0.0
 11
19.638785993110741
 21
7.109737713961616
 31
0.0
  0
LINE
  5
5AD95
  8
0
 62
     0
 10
19.738222884215091
 20
7.2091746050659742
 30
0.0
 11
19.738222884215091
 21
7.2091746050659742
 31
0.0
  0
LINE
  5
5AD96
  8
0
 62
     0
 10
19.837659775319452
 20
7.3086114961703323
 30
0.0
 11
19.837659775319452
 21
7.3086114961703323
 31
0.0
  0
LINE
  5
5AD97
  8
0
 62
     0
 10
19.937096666423809
 20
7.4080483872746896
 30
0.0
 11
19.937096666423809
 21
7.4080483872746896
 31
0.0
  0
LINE
  5
5AD98
  8
0
 62
     0
 10
20.03653355752817
 20
7.5074852783790478
 30
0.0
 11
20.03653355752817
 21
7.5074852783790478
 31
0.0
  0
LINE
  5
5AD99
  8
0
 62
     0
 10
20.13597044863252
 20
7.6069221694834059
 30
0.0
 11
20.13597044863252
 21
7.6069221694834059
 31
0.0
  0
LINE
  5
5AD9A
  8
0
 62
     0
 10
20.235407339736881
 20
7.7063590605877641
 30
0.0
 11
20.235407339736881
 21
7.7063590605877641
 31
0.0
  0
LINE
  5
5AD9B
  8
0
 62
     0
 10
20.334844230841242
 20
7.8057959516921231
 30
0.0
 11
20.334844230841242
 21
7.8057959516921231
 31
0.0
  0
LINE
  5
5AD9C
  8
0
 62
     0
 10
20.434281121945592
 20
7.9052328427964813
 30
0.0
 11
20.434281121945592
 21
7.9052328427964813
 31
0.0
  0
LINE
  5
5AD9D
  8
0
 62
     0
 10
20.533718013049949
 20
8.0046697339008404
 30
0.0
 11
20.533718013049949
 21
8.0046697339008404
 31
0.0
  0
LINE
  5
5AD9E
  8
0
 62
     0
 10
20.63315490415431
 20
8.1041066250051994
 30
0.0
 11
20.63315490415431
 21
8.1041066250051994
 31
0.0
  0
LINE
  5
5AD9F
  8
0
 62
     0
 10
20.732591795258671
 20
8.2035435161095585
 30
0.0
 11
20.732591795258671
 21
8.2035435161095585
 31
0.0
  0
LINE
  5
5ADA0
  8
0
 62
     0
 10
20.832028686363021
 20
8.3029804072139175
 30
0.0
 11
20.832028686363021
 21
8.3029804072139175
 31
0.0
  0
LINE
  5
5ADA1
  8
0
 62
     0
 10
20.931465577467382
 20
8.4024172983182766
 30
0.0
 11
20.931465577467382
 21
8.4024172983182766
 31
0.0
  0
LINE
  5
5ADA2
  8
0
 62
     0
 10
21.030902468571739
 20
8.5018541894226356
 30
0.0
 11
21.030902468571739
 21
8.5018541894226356
 31
0.0
  0
LINE
  5
5ADA3
  8
0
 62
     0
 10
21.1303393596761
 20
8.6012910805269946
 30
0.0
 11
21.1303393596761
 21
8.6012910805269946
 31
0.0
  0
LINE
  5
5ADA4
  8
0
 62
     0
 10
21.22977625078045
 20
8.7007279716313537
 30
0.0
 11
21.22977625078045
 21
8.7007279716313537
 31
0.0
  0
LINE
  5
5ADA5
  8
0
 62
     0
 10
21.329213141884811
 20
8.8001648627357127
 30
0.0
 11
21.329213141884811
 21
8.8001648627357127
 31
0.0
  0
LINE
  5
5ADA6
  8
0
 62
     0
 10
21.428650032989172
 20
8.8996017538400718
 30
0.0
 11
21.428650032989172
 21
8.8996017538400718
 31
0.0
  0
LINE
  5
5ADA7
  8
0
 62
     0
 10
21.528086924093529
 20
8.9990386449444308
 30
0.0
 11
21.528086924093529
 21
8.9990386449444308
 31
0.0
  0
LINE
  5
5ADA8
  8
0
 62
     0
 10
21.627523815197879
 20
9.0984755360487881
 30
0.0
 11
21.627523815197879
 21
9.0984755360487881
 31
0.0
  0
LINE
  5
5ADA9
  8
0
 62
     0
 10
21.72696070630224
 20
9.1979124271531472
 30
0.0
 11
21.72696070630224
 21
9.1979124271531472
 31
0.0
  0
LINE
  5
5ADAA
  8
0
 62
     0
 10
21.826397597406601
 20
9.2973493182575062
 30
0.0
 11
21.826397597406601
 21
9.2973493182575062
 31
0.0
  0
LINE
  5
5ADAB
  8
0
 62
     0
 10
21.925834488510951
 20
9.396786209361867
 30
0.0
 11
21.925834488510951
 21
9.396786209361867
 31
0.0
  0
LINE
  5
5ADAC
  8
0
 62
     0
 10
22.025271379615312
 20
9.4962231004662261
 30
0.0
 11
22.025271379615312
 21
9.4962231004662261
 31
0.0
  0
LINE
  5
5ADAD
  8
0
 62
     0
 10
22.124708270719669
 20
9.5956599915705851
 30
0.0
 11
22.124708270719669
 21
9.5956599915705851
 31
0.0
  0
LINE
  5
5ADAE
  8
0
 62
     0
 10
22.22414516182403
 20
9.6950968826749442
 30
0.0
 11
22.22414516182403
 21
9.6950968826749442
 31
0.0
  0
LINE
  5
5ADAF
  8
0
 62
     0
 10
22.32358205292838
 20
9.7945337737793032
 30
0.0
 11
22.32358205292838
 21
9.7945337737793032
 31
0.0
  0
LINE
  5
5ADB0
  8
0
 62
     0
 10
22.423018944032741
 20
9.8939706648836623
 30
0.0
 11
22.423018944032741
 21
9.8939706648836623
 31
0.0
  0
LINE
  5
5ADB1
  8
0
 62
     0
 10
22.522455835137102
 20
9.9934075559880213
 30
0.0
 11
22.522455835137102
 21
9.9934075559880213
 31
0.0
  0
LINE
  5
5ADB2
  8
0
 62
     0
 10
22.621892726241459
 20
10.09284444709238
 30
0.0
 11
22.621892726241459
 21
10.09284444709238
 31
0.0
  0
LINE
  5
5ADB3
  8
0
 62
     0
 10
22.721329617345809
 20
10.192281338196739
 30
0.0
 11
22.721329617345809
 21
10.192281338196739
 31
0.0
  0
LINE
  5
5ADB4
  8
0
 62
     0
 10
22.82076650845017
 20
10.2917182293011
 30
0.0
 11
22.82076650845017
 21
10.2917182293011
 31
0.0
  0
LINE
  5
5ADB5
  8
0
 62
     0
 10
22.920203399554531
 20
10.39115512040545
 30
0.0
 11
22.920203399554531
 21
10.39115512040545
 31
0.0
  0
LINE
  5
5ADB6
  8
0
 62
     0
 10
23.019640290658892
 20
10.490592011509809
 30
0.0
 11
23.019640290658892
 21
10.490592011509809
 31
0.0
  0
LINE
  5
5ADB7
  8
0
 62
     0
 10
23.119077181763242
 20
10.59002890261417
 30
0.0
 11
23.119077181763242
 21
10.59002890261417
 31
0.0
  0
LINE
  5
5ADB8
  8
0
 62
     0
 10
23.218514072867599
 20
10.689465793718529
 30
0.0
 11
23.218514072867599
 21
10.689465793718529
 31
0.0
  0
LINE
  5
5ADB9
  8
0
 62
     0
 10
23.31795096397196
 20
10.78890268482289
 30
0.0
 11
23.31795096397196
 21
10.78890268482289
 31
0.0
  0
LINE
  5
5ADBA
  8
0
 62
     0
 10
23.41738785507631
 20
10.888339575927249
 30
0.0
 11
23.41738785507631
 21
10.888339575927249
 31
0.0
  0
LINE
  5
5ADBB
  8
0
 62
     0
 10
23.516824746180671
 20
10.98777646703161
 30
0.0
 11
23.516824746180671
 21
10.98777646703161
 31
0.0
  0
LINE
  5
5ADBC
  8
0
 62
     0
 10
23.616261637285032
 20
11.087213358135971
 30
0.0
 11
23.616261637285032
 21
11.087213358135971
 31
0.0
  0
LINE
  5
5ADBD
  8
0
 62
     0
 10
23.715698528389389
 20
11.18665024924033
 30
0.0
 11
23.715698528389389
 21
11.18665024924033
 31
0.0
  0
LINE
  5
5ADBE
  8
0
 62
     0
 10
23.815135419493739
 20
11.286087140344691
 30
0.0
 11
23.815135419493739
 21
11.286087140344691
 31
0.0
  0
LINE
  5
5ADBF
  8
0
 62
     0
 10
23.9145723105981
 20
11.38552403144905
 30
0.0
 11
23.9145723105981
 21
11.38552403144905
 31
0.0
  0
LINE
  5
5ADC0
  8
0
 62
     0
 10
25.604999459372252
 20
13.075951180223109
 30
0.0
 11
25.604999459372252
 21
13.075951180223109
 31
0.0
  0
LINE
  5
5ADC1
  8
0
 62
     0
 10
25.704436350476609
 20
13.17538807132747
 30
0.0
 11
25.704436350476609
 21
13.17538807132747
 31
0.0
  0
LINE
  5
5ADC2
  8
0
 62
     0
 10
25.803873241580959
 20
13.274824962431831
 30
0.0
 11
25.803873241580959
 21
13.274824962431831
 31
0.0
  0
LINE
  5
5ADC3
  8
0
 62
     0
 10
25.90331013268532
 20
13.37426185353619
 30
0.0
 11
25.90331013268532
 21
13.37426185353619
 31
0.0
  0
LINE
  5
5ADC4
  8
0
 62
     0
 10
26.002747023789681
 20
13.473698744640551
 30
0.0
 11
26.002747023789681
 21
13.473698744640551
 31
0.0
  0
LINE
  5
5ADC5
  8
0
 62
     0
 10
18.196951072097558
 20
5.8667765751571412
 30
0.0
 11
18.196951072097558
 21
5.8667765751571412
 31
0.0
  0
LINE
  5
5ADC6
  8
0
 62
     0
 10
18.296387963201919
 20
5.9662134662614994
 30
0.0
 11
18.296387963201919
 21
5.9662134662614994
 31
0.0
  0
LINE
  5
5ADC7
  8
0
 62
     0
 10
18.39582485430628
 20
6.0656503573658567
 30
0.0
 11
18.39582485430628
 21
6.0656503573658567
 31
0.0
  0
LINE
  5
5ADC8
  8
0
 62
     0
 10
18.49526174541063
 20
6.1650872484702148
 30
0.0
 11
18.49526174541063
 21
6.1650872484702148
 31
0.0
  0
LINE
  5
5ADC9
  8
0
 62
     0
 10
18.594698636514991
 20
6.264524139574573
 30
0.0
 11
18.594698636514991
 21
6.264524139574573
 31
0.0
  0
LINE
  5
5ADCA
  8
0
 62
     0
 10
18.694135527619348
 20
6.363961030678932
 30
0.0
 11
18.694135527619348
 21
6.363961030678932
 31
0.0
  0
LINE
  5
5ADCB
  8
0
 62
     0
 10
18.793572418723699
 20
6.4633979217832902
 30
0.0
 11
18.793572418723699
 21
6.4633979217832902
 31
0.0
  0
LINE
  5
5ADCC
  8
0
 62
     0
 10
18.893009309828059
 20
6.5628348128876484
 30
0.0
 11
18.893009309828059
 21
6.5628348128876484
 31
0.0
  0
LINE
  5
5ADCD
  8
0
 62
     0
 10
18.99244620093242
 20
6.6622717039920056
 30
0.0
 11
18.99244620093242
 21
6.6622717039920056
 31
0.0
  0
LINE
  5
5ADCE
  8
0
 62
     0
 10
19.091883092036781
 20
6.7617085950963638
 30
0.0
 11
19.091883092036781
 21
6.7617085950963638
 31
0.0
  0
LINE
  5
5ADCF
  8
0
 62
     0
 10
19.191319983141131
 20
6.861145486200722
 30
0.0
 11
19.191319983141131
 21
6.861145486200722
 31
0.0
  0
LINE
  5
5ADD0
  8
0
 62
     0
 10
19.290756874245488
 20
6.960582377305081
 30
0.0
 11
19.290756874245488
 21
6.960582377305081
 31
0.0
  0
LINE
  5
5ADD1
  8
0
 62
     0
 10
19.390193765349849
 20
7.0600192684094392
 30
0.0
 11
19.390193765349849
 21
7.0600192684094392
 31
0.0
  0
LINE
  5
5ADD2
  8
0
 62
     0
 10
19.489630656454199
 20
7.1594561595137973
 30
0.0
 11
19.489630656454199
 21
7.1594561595137973
 31
0.0
  0
LINE
  5
5ADD3
  8
0
 62
     0
 10
19.58906754755856
 20
7.2588930506181546
 30
0.0
 11
19.58906754755856
 21
7.2588930506181546
 31
0.0
  0
LINE
  5
5ADD4
  8
0
 62
     0
 10
19.688504438662921
 20
7.3583299417225128
 30
0.0
 11
19.688504438662921
 21
7.3583299417225128
 31
0.0
  0
LINE
  5
5ADD5
  8
0
 62
     0
 10
19.787941329767278
 20
7.4577668328268709
 30
0.0
 11
19.787941329767278
 21
7.4577668328268709
 31
0.0
  0
LINE
  5
5ADD6
  8
0
 62
     0
 10
19.887378220871629
 20
7.5572037239312291
 30
0.0
 11
19.887378220871629
 21
7.5572037239312291
 31
0.0
  0
LINE
  5
5ADD7
  8
0
 62
     0
 10
19.986815111975989
 20
7.6566406150355881
 30
0.0
 11
19.986815111975989
 21
7.6566406150355881
 31
0.0
  0
LINE
  5
5ADD8
  8
0
 62
     0
 10
20.08625200308035
 20
7.7560775061399463
 30
0.0
 11
20.08625200308035
 21
7.7560775061399463
 31
0.0
  0
LINE
  5
5ADD9
  8
0
 62
     0
 10
20.185688894184711
 20
7.8555143972443036
 30
0.0
 11
20.185688894184711
 21
7.8555143972443036
 31
0.0
  0
LINE
  5
5ADDA
  8
0
 62
     0
 10
20.285125785289068
 20
7.9549512883486617
 30
0.0
 11
20.285125785289068
 21
7.9549512883486617
 31
0.0
  0
LINE
  5
5ADDB
  8
0
 62
     0
 10
20.384562676393418
 20
8.0543881794530208
 30
0.0
 11
20.384562676393418
 21
8.0543881794530208
 31
0.0
  0
LINE
  5
5ADDC
  8
0
 62
     0
 10
20.483999567497779
 20
8.1538250705573798
 30
0.0
 11
20.483999567497779
 21
8.1538250705573798
 31
0.0
  0
LINE
  5
5ADDD
  8
0
 62
     0
 10
20.58343645860214
 20
8.2532619616617389
 30
0.0
 11
20.58343645860214
 21
8.2532619616617389
 31
0.0
  0
LINE
  5
5ADDE
  8
0
 62
     0
 10
20.682873349706501
 20
8.3526988527660961
 30
0.0
 11
20.682873349706501
 21
8.3526988527660961
 31
0.0
  0
LINE
  5
5ADDF
  8
0
 62
     0
 10
20.782310240810851
 20
8.4521357438704552
 30
0.0
 11
20.782310240810851
 21
8.4521357438704552
 31
0.0
  0
LINE
  5
5ADE0
  8
0
 62
     0
 10
20.881747131915208
 20
8.551572634974816
 30
0.0
 11
20.881747131915208
 21
8.551572634974816
 31
0.0
  0
LINE
  5
5ADE1
  8
0
 62
     0
 10
20.981184023019569
 20
8.6510095260791751
 30
0.0
 11
20.981184023019569
 21
8.6510095260791751
 31
0.0
  0
LINE
  5
5ADE2
  8
0
 62
     0
 10
21.080620914123919
 20
8.7504464171835341
 30
0.0
 11
21.080620914123919
 21
8.7504464171835341
 31
0.0
  0
LINE
  5
5ADE3
  8
0
 62
     0
 10
21.18005780522828
 20
8.8498833082878932
 30
0.0
 11
21.18005780522828
 21
8.8498833082878932
 31
0.0
  0
LINE
  5
5ADE4
  8
0
 62
     0
 10
21.279494696332641
 20
8.9493201993922522
 30
0.0
 11
21.279494696332641
 21
8.9493201993922522
 31
0.0
  0
LINE
  5
5ADE5
  8
0
 62
     0
 10
21.378931587436998
 20
9.0487570904966113
 30
0.0
 11
21.378931587436998
 21
9.0487570904966113
 31
0.0
  0
LINE
  5
5ADE6
  8
0
 62
     0
 10
21.478368478541348
 20
9.1481939816009703
 30
0.0
 11
21.478368478541348
 21
9.1481939816009703
 31
0.0
  0
LINE
  5
5ADE7
  8
0
 62
     0
 10
21.577805369645709
 20
9.2476308727053294
 30
0.0
 11
21.577805369645709
 21
9.2476308727053294
 31
0.0
  0
LINE
  5
5ADE8
  8
0
 62
     0
 10
21.67724226075007
 20
9.3470677638096884
 30
0.0
 11
21.67724226075007
 21
9.3470677638096884
 31
0.0
  0
LINE
  5
5ADE9
  8
0
 62
     0
 10
21.776679151854431
 20
9.4465046549140474
 30
0.0
 11
21.776679151854431
 21
9.4465046549140474
 31
0.0
  0
LINE
  5
5ADEA
  8
0
 62
     0
 10
21.876116042958781
 20
9.5459415460184065
 30
0.0
 11
21.876116042958781
 21
9.5459415460184065
 31
0.0
  0
LINE
  5
5ADEB
  8
0
 62
     0
 10
21.975552934063138
 20
9.6453784371227655
 30
0.0
 11
21.975552934063138
 21
9.6453784371227655
 31
0.0
  0
LINE
  5
5ADEC
  8
0
 62
     0
 10
22.074989825167489
 20
9.7448153282271246
 30
0.0
 11
22.074989825167489
 21
9.7448153282271246
 31
0.0
  0
LINE
  5
5ADED
  8
0
 62
     0
 10
22.17442671627186
 20
9.8442522193314836
 30
0.0
 11
22.17442671627186
 21
9.8442522193314836
 31
0.0
  0
LINE
  5
5ADEE
  8
0
 62
     0
 10
22.27386360737621
 20
9.9436891104358427
 30
0.0
 11
22.27386360737621
 21
9.9436891104358427
 31
0.0
  0
LINE
  5
5ADEF
  8
0
 62
     0
 10
22.373300498480571
 20
10.0431260015402
 30
0.0
 11
22.373300498480571
 21
10.0431260015402
 31
0.0
  0
LINE
  5
5ADF0
  8
0
 62
     0
 10
22.472737389584921
 20
10.142562892644561
 30
0.0
 11
22.472737389584921
 21
10.142562892644561
 31
0.0
  0
LINE
  5
5ADF1
  8
0
 62
     0
 10
22.572174280689278
 20
10.24199978374892
 30
0.0
 11
22.572174280689278
 21
10.24199978374892
 31
0.0
  0
LINE
  5
5ADF2
  8
0
 62
     0
 10
22.671611171793639
 20
10.341436674853281
 30
0.0
 11
22.671611171793639
 21
10.341436674853281
 31
0.0
  0
LINE
  5
5ADF3
  8
0
 62
     0
 10
22.771048062898
 20
10.44087356595764
 30
0.0
 11
22.771048062898
 21
10.44087356595764
 31
0.0
  0
LINE
  5
5ADF4
  8
0
 62
     0
 10
22.87048495400235
 20
10.54031045706199
 30
0.0
 11
22.87048495400235
 21
10.54031045706199
 31
0.0
  0
LINE
  5
5ADF5
  8
0
 62
     0
 10
22.969921845106711
 20
10.639747348166351
 30
0.0
 11
22.969921845106711
 21
10.639747348166351
 31
0.0
  0
LINE
  5
5ADF6
  8
0
 62
     0
 10
23.069358736211068
 20
10.73918423927071
 30
0.0
 11
23.069358736211068
 21
10.73918423927071
 31
0.0
  0
LINE
  5
5ADF7
  8
0
 62
     0
 10
23.168795627315429
 20
10.838621130375071
 30
0.0
 11
23.168795627315429
 21
10.838621130375071
 31
0.0
  0
LINE
  5
5ADF8
  8
0
 62
     0
 10
23.268232518419779
 20
10.93805802147943
 30
0.0
 11
23.268232518419779
 21
10.93805802147943
 31
0.0
  0
LINE
  5
5ADF9
  8
0
 62
     0
 10
23.36766940952414
 20
11.03749491258379
 30
0.0
 11
23.36766940952414
 21
11.03749491258379
 31
0.0
  0
LINE
  5
5ADFA
  8
0
 62
     0
 10
23.467106300628501
 20
11.13693180368815
 30
0.0
 11
23.467106300628501
 21
11.13693180368815
 31
0.0
  0
LINE
  5
5ADFB
  8
0
 62
     0
 10
23.566543191732851
 20
11.23636869479251
 30
0.0
 11
23.566543191732851
 21
11.23636869479251
 31
0.0
  0
LINE
  5
5ADFC
  8
0
 62
     0
 10
23.665980082837208
 20
11.335805585896869
 30
0.0
 11
23.665980082837208
 21
11.335805585896869
 31
0.0
  0
LINE
  5
5ADFD
  8
0
 62
     0
 10
23.765416973941569
 20
11.43524247700123
 30
0.0
 11
23.765416973941569
 21
11.43524247700123
 31
0.0
  0
LINE
  5
5ADFE
  8
0
 62
     0
 10
23.86485386504593
 20
11.53467936810558
 30
0.0
 11
23.86485386504593
 21
11.53467936810558
 31
0.0
  0
LINE
  5
5ADFF
  8
0
 62
     0
 10
23.96429075615028
 20
11.63411625920995
 30
0.0
 11
23.96429075615028
 21
11.63411625920995
 31
0.0
  0
LINE
  5
5AE00
  8
0
 62
     0
 10
24.063727647254641
 20
11.7335531503143
 30
0.0
 11
24.063727647254641
 21
11.7335531503143
 31
0.0
  0
LINE
  5
5AE01
  8
0
 62
     0
 10
24.163164538358998
 20
11.832990041418659
 30
0.0
 11
24.163164538358998
 21
11.832990041418659
 31
0.0
  0
LINE
  5
5AE02
  8
0
 62
     0
 10
25.058096558298281
 20
12.727922061357861
 30
0.0
 11
25.058096558298281
 21
12.727922061357861
 31
0.0
  0
LINE
  5
5AE03
  8
0
 62
     0
 10
25.157533449402639
 20
12.82735895246222
 30
0.0
 11
25.157533449402639
 21
12.82735895246222
 31
0.0
  0
LINE
  5
5AE04
  8
0
 62
     0
 10
25.256970340506999
 20
12.92679584356658
 30
0.0
 11
25.256970340506999
 21
12.92679584356658
 31
0.0
  0
LINE
  5
5AE05
  8
0
 62
     0
 10
25.35640723161135
 20
13.026232734670939
 30
0.0
 11
25.35640723161135
 21
13.026232734670939
 31
0.0
  0
LINE
  5
5AE06
  8
0
 62
     0
 10
25.45584412271571
 20
13.1256696257753
 30
0.0
 11
25.45584412271571
 21
13.1256696257753
 31
0.0
  0
LINE
  5
5AE07
  8
0
 62
     0
 10
25.555281013820071
 20
13.22510651687965
 30
0.0
 11
25.555281013820071
 21
13.22510651687965
 31
0.0
  0
LINE
  5
5AE08
  8
0
 62
     0
 10
25.654717904924428
 20
13.324543407984009
 30
0.0
 11
25.654717904924428
 21
13.324543407984009
 31
0.0
  0
LINE
  5
5AE09
  8
0
 62
     0
 10
25.754154796028779
 20
13.42398029908837
 30
0.0
 11
25.754154796028779
 21
13.42398029908837
 31
0.0
  0
LINE
  5
5AE0A
  8
0
 62
     0
 10
25.853591687133139
 20
13.523417190192729
 30
0.0
 11
25.853591687133139
 21
13.523417190192729
 31
0.0
  0
LINE
  5
5AE0B
  8
0
 62
     0
 10
18.445543299858461
 20
6.3142425851267507
 30
0.0
 11
18.445543299858461
 21
6.3142425851267507
 31
0.0
  0
LINE
  5
5AE0C
  8
0
 62
     0
 10
18.544980190962811
 20
6.4136794762311089
 30
0.0
 11
18.544980190962811
 21
6.4136794762311089
 31
0.0
  0
LINE
  5
5AE0D
  8
0
 62
     0
 10
18.644417082067172
 20
6.5131163673354671
 30
0.0
 11
18.644417082067172
 21
6.5131163673354671
 31
0.0
  0
LINE
  5
5AE0E
  8
0
 62
     0
 10
18.743853973171529
 20
6.6125532584398261
 30
0.0
 11
18.743853973171529
 21
6.6125532584398261
 31
0.0
  0
LINE
  5
5AE0F
  8
0
 62
     0
 10
18.843290864275879
 20
6.7119901495441843
 30
0.0
 11
18.843290864275879
 21
6.7119901495441843
 31
0.0
  0
LINE
  5
5AE10
  8
0
 62
     0
 10
18.94272775538024
 20
6.8114270406485424
 30
0.0
 11
18.94272775538024
 21
6.8114270406485424
 31
0.0
  0
LINE
  5
5AE11
  8
0
 62
     0
 10
19.042164646484601
 20
6.9108639317528997
 30
0.0
 11
19.042164646484601
 21
6.9108639317528997
 31
0.0
  0
LINE
  5
5AE12
  8
0
 62
     0
 10
19.141601537588961
 20
7.0103008228572579
 30
0.0
 11
19.141601537588961
 21
7.0103008228572579
 31
0.0
  0
LINE
  5
5AE13
  8
0
 62
     0
 10
19.241038428693312
 20
7.109737713961616
 30
0.0
 11
19.241038428693312
 21
7.109737713961616
 31
0.0
  0
LINE
  5
5AE14
  8
0
 62
     0
 10
19.340475319797669
 20
7.2091746050659751
 30
0.0
 11
19.340475319797669
 21
7.2091746050659751
 31
0.0
  0
LINE
  5
5AE15
  8
0
 62
     0
 10
19.43991221090203
 20
7.3086114961703332
 30
0.0
 11
19.43991221090203
 21
7.3086114961703332
 31
0.0
  0
LINE
  5
5AE16
  8
0
 62
     0
 10
19.53934910200638
 20
7.4080483872746914
 30
0.0
 11
19.53934910200638
 21
7.4080483872746914
 31
0.0
  0
LINE
  5
5AE17
  8
0
 62
     0
 10
19.638785993110741
 20
7.5074852783790487
 30
0.0
 11
19.638785993110741
 21
7.5074852783790487
 31
0.0
  0
LINE
  5
5AE18
  8
0
 62
     0
 10
19.738222884215102
 20
7.6069221694834068
 30
0.0
 11
19.738222884215102
 21
7.6069221694834068
 31
0.0
  0
LINE
  5
5AE19
  8
0
 62
     0
 10
19.837659775319459
 20
7.706359060587765
 30
0.0
 11
19.837659775319459
 21
7.706359060587765
 31
0.0
  0
LINE
  5
5AE1A
  8
0
 62
     0
 10
19.937096666423809
 20
7.805795951692124
 30
0.0
 11
19.937096666423809
 21
7.805795951692124
 31
0.0
  0
LINE
  5
5AE1B
  8
0
 62
     0
 10
20.03653355752817
 20
7.9052328427964822
 30
0.0
 11
20.03653355752817
 21
7.9052328427964822
 31
0.0
  0
LINE
  5
5AE1C
  8
0
 62
     0
 10
20.135970448632531
 20
8.0046697339008404
 30
0.0
 11
20.135970448632531
 21
8.0046697339008404
 31
0.0
  0
LINE
  5
5AE1D
  8
0
 62
     0
 10
20.235407339736891
 20
8.1041066250051994
 30
0.0
 11
20.235407339736891
 21
8.1041066250051994
 31
0.0
  0
LINE
  5
5AE1E
  8
0
 62
     0
 10
20.334844230841249
 20
8.2035435161095585
 30
0.0
 11
20.334844230841249
 21
8.2035435161095585
 31
0.0
  0
LINE
  5
5AE1F
  8
0
 62
     0
 10
20.434281121945599
 20
8.3029804072139175
 30
0.0
 11
20.434281121945599
 21
8.3029804072139175
 31
0.0
  0
LINE
  5
5AE20
  8
0
 62
     0
 10
20.53371801304996
 20
8.4024172983182766
 30
0.0
 11
20.53371801304996
 21
8.4024172983182766
 31
0.0
  0
LINE
  5
5AE21
  8
0
 62
     0
 10
20.633154904154321
 20
8.5018541894226356
 30
0.0
 11
20.633154904154321
 21
8.5018541894226356
 31
0.0
  0
LINE
  5
5AE22
  8
0
 62
     0
 10
20.732591795258681
 20
8.6012910805269946
 30
0.0
 11
20.732591795258681
 21
8.6012910805269946
 31
0.0
  0
LINE
  5
5AE23
  8
0
 62
     0
 10
20.832028686363032
 20
8.7007279716313537
 30
0.0
 11
20.832028686363032
 21
8.7007279716313537
 31
0.0
  0
LINE
  5
5AE24
  8
0
 62
     0
 10
20.931465577467389
 20
8.8001648627357127
 30
0.0
 11
20.931465577467389
 21
8.8001648627357127
 31
0.0
  0
LINE
  5
5AE25
  8
0
 62
     0
 10
21.03090246857175
 20
8.8996017538400718
 30
0.0
 11
21.03090246857175
 21
8.8996017538400718
 31
0.0
  0
LINE
  5
5AE26
  8
0
 62
     0
 10
21.1303393596761
 20
8.9990386449444308
 30
0.0
 11
21.1303393596761
 21
8.9990386449444308
 31
0.0
  0
LINE
  5
5AE27
  8
0
 62
     0
 10
21.229776250780461
 20
9.0984755360487881
 30
0.0
 11
21.229776250780461
 21
9.0984755360487881
 31
0.0
  0
LINE
  5
5AE28
  8
0
 62
     0
 10
21.329213141884821
 20
9.1979124271531472
 30
0.0
 11
21.329213141884821
 21
9.1979124271531472
 31
0.0
  0
LINE
  5
5AE29
  8
0
 62
     0
 10
21.428650032989179
 20
9.2973493182575062
 30
0.0
 11
21.428650032989179
 21
9.2973493182575062
 31
0.0
  0
LINE
  5
5AE2A
  8
0
 62
     0
 10
21.528086924093529
 20
9.396786209361867
 30
0.0
 11
21.528086924093529
 21
9.396786209361867
 31
0.0
  0
LINE
  5
5AE2B
  8
0
 62
     0
 10
21.62752381519789
 20
9.4962231004662261
 30
0.0
 11
21.62752381519789
 21
9.4962231004662261
 31
0.0
  0
LINE
  5
5AE2C
  8
0
 62
     0
 10
21.726960706302251
 20
9.5956599915705851
 30
0.0
 11
21.726960706302251
 21
9.5956599915705851
 31
0.0
  0
LINE
  5
5AE2D
  8
0
 62
     0
 10
21.826397597406611
 20
9.6950968826749442
 30
0.0
 11
21.826397597406611
 21
9.6950968826749442
 31
0.0
  0
LINE
  5
5AE2E
  8
0
 62
     0
 10
21.925834488510962
 20
9.7945337737793032
 30
0.0
 11
21.925834488510962
 21
9.7945337737793032
 31
0.0
  0
LINE
  5
5AE2F
  8
0
 62
     0
 10
22.025271379615319
 20
9.8939706648836623
 30
0.0
 11
22.025271379615319
 21
9.8939706648836623
 31
0.0
  0
LINE
  5
5AE30
  8
0
 62
     0
 10
22.124708270719669
 20
9.9934075559880213
 30
0.0
 11
22.124708270719669
 21
9.9934075559880213
 31
0.0
  0
LINE
  5
5AE31
  8
0
 62
     0
 10
22.22414516182404
 20
10.09284444709238
 30
0.0
 11
22.22414516182404
 21
10.09284444709238
 31
0.0
  0
LINE
  5
5AE32
  8
0
 62
     0
 10
22.323582052928391
 20
10.192281338196739
 30
0.0
 11
22.323582052928391
 21
10.192281338196739
 31
0.0
  0
LINE
  5
5AE33
  8
0
 62
     0
 10
22.423018944032751
 20
10.2917182293011
 30
0.0
 11
22.423018944032751
 21
10.2917182293011
 31
0.0
  0
LINE
  5
5AE34
  8
0
 62
     0
 10
22.522455835137102
 20
10.39115512040545
 30
0.0
 11
22.522455835137102
 21
10.39115512040545
 31
0.0
  0
LINE
  5
5AE35
  8
0
 62
     0
 10
22.621892726241459
 20
10.490592011509809
 30
0.0
 11
22.621892726241459
 21
10.490592011509809
 31
0.0
  0
LINE
  5
5AE36
  8
0
 62
     0
 10
22.72132961734582
 20
10.59002890261417
 30
0.0
 11
22.72132961734582
 21
10.59002890261417
 31
0.0
  0
LINE
  5
5AE37
  8
0
 62
     0
 10
22.820766508450181
 20
10.689465793718529
 30
0.0
 11
22.820766508450181
 21
10.689465793718529
 31
0.0
  0
LINE
  5
5AE38
  8
0
 62
     0
 10
22.920203399554531
 20
10.78890268482289
 30
0.0
 11
22.920203399554531
 21
10.78890268482289
 31
0.0
  0
LINE
  5
5AE39
  8
0
 62
     0
 10
23.019640290658892
 20
10.888339575927249
 30
0.0
 11
23.019640290658892
 21
10.888339575927249
 31
0.0
  0
LINE
  5
5AE3A
  8
0
 62
     0
 10
23.119077181763249
 20
10.98777646703161
 30
0.0
 11
23.119077181763249
 21
10.98777646703161
 31
0.0
  0
LINE
  5
5AE3B
  8
0
 62
     0
 10
23.21851407286761
 20
11.087213358135971
 30
0.0
 11
23.21851407286761
 21
11.087213358135971
 31
0.0
  0
LINE
  5
5AE3C
  8
0
 62
     0
 10
23.31795096397196
 20
11.18665024924033
 30
0.0
 11
23.31795096397196
 21
11.18665024924033
 31
0.0
  0
LINE
  5
5AE3D
  8
0
 62
     0
 10
23.417387855076321
 20
11.286087140344691
 30
0.0
 11
23.417387855076321
 21
11.286087140344691
 31
0.0
  0
LINE
  5
5AE3E
  8
0
 62
     0
 10
23.516824746180681
 20
11.38552403144905
 30
0.0
 11
23.516824746180681
 21
11.38552403144905
 31
0.0
  0
LINE
  5
5AE3F
  8
0
 62
     0
 10
23.616261637285032
 20
11.4849609225534
 30
0.0
 11
23.616261637285032
 21
11.4849609225534
 31
0.0
  0
LINE
  5
5AE40
  8
0
 62
     0
 10
23.715698528389389
 20
11.584397813657761
 30
0.0
 11
23.715698528389389
 21
11.584397813657761
 31
0.0
  0
LINE
  5
5AE41
  8
0
 62
     0
 10
23.81513541949375
 20
11.68383470476212
 30
0.0
 11
23.81513541949375
 21
11.68383470476212
 31
0.0
  0
LINE
  5
5AE42
  8
0
 62
     0
 10
23.914572310598111
 20
11.783271595866481
 30
0.0
 11
23.914572310598111
 21
11.783271595866481
 31
0.0
  0
LINE
  5
5AE43
  8
0
 62
     0
 10
24.014009201702461
 20
11.88270848697084
 30
0.0
 11
24.014009201702461
 21
11.88270848697084
 31
0.0
  0
LINE
  5
5AE44
  8
0
 62
     0
 10
24.113446092806821
 20
11.982145378075201
 30
0.0
 11
24.113446092806821
 21
11.982145378075201
 31
0.0
  0
LINE
  5
5AE45
  8
0
 62
     0
 10
24.212882983911179
 20
12.08158226917956
 30
0.0
 11
24.212882983911179
 21
12.08158226917956
 31
0.0
  0
LINE
  5
5AE46
  8
0
 62
     0
 10
24.31231987501554
 20
12.18101916028392
 30
0.0
 11
24.31231987501554
 21
12.18101916028392
 31
0.0
  0
LINE
  5
5AE47
  8
0
 62
     0
 10
24.41175676611989
 20
12.280456051388279
 30
0.0
 11
24.41175676611989
 21
12.280456051388279
 31
0.0
  0
LINE
  5
5AE48
  8
0
 62
     0
 10
24.511193657224251
 20
12.37989294249264
 30
0.0
 11
24.511193657224251
 21
12.37989294249264
 31
0.0
  0
LINE
  5
5AE49
  8
0
 62
     0
 10
24.610630548328668
 20
12.47932983359696
 30
0.0
 11
24.610630548328668
 21
12.47932983359696
 31
0.0
  0
LINE
  5
5AE4A
  8
0
 62
     0
 10
24.710067439433018
 20
12.578766724701319
 30
0.0
 11
24.710067439433018
 21
12.578766724701319
 31
0.0
  0
LINE
  5
5AE4B
  8
0
 62
     0
 10
24.80950433053739
 20
12.67820361580568
 30
0.0
 11
24.80950433053739
 21
12.67820361580568
 31
0.0
  0
LINE
  5
5AE4C
  8
0
 62
     0
 10
24.90894122164174
 20
12.777640506910039
 30
0.0
 11
24.90894122164174
 21
12.777640506910039
 31
0.0
  0
LINE
  5
5AE4D
  8
0
 62
     0
 10
25.008378112746101
 20
12.8770773980144
 30
0.0
 11
25.008378112746101
 21
12.8770773980144
 31
0.0
  0
LINE
  5
5AE4E
  8
0
 62
     0
 10
25.107815003850451
 20
12.976514289118761
 30
0.0
 11
25.107815003850451
 21
12.976514289118761
 31
0.0
  0
LINE
  5
5AE4F
  8
0
 62
     0
 10
25.207251894954808
 20
13.07595118022312
 30
0.0
 11
25.207251894954808
 21
13.07595118022312
 31
0.0
  0
LINE
  5
5AE50
  8
0
 62
     0
 10
25.306688786059169
 20
13.175388071327481
 30
0.0
 11
25.306688786059169
 21
13.175388071327481
 31
0.0
  0
LINE
  5
5AE51
  8
0
 62
     0
 10
25.40612567716353
 20
13.274824962431831
 30
0.0
 11
25.40612567716353
 21
13.274824962431831
 31
0.0
  0
LINE
  5
5AE52
  8
0
 62
     0
 10
25.50556256826788
 20
13.37426185353619
 30
0.0
 11
25.50556256826788
 21
13.37426185353619
 31
0.0
  0
LINE
  5
5AE53
  8
0
 62
     0
 10
25.604999459372241
 20
13.473698744640551
 30
0.0
 11
25.604999459372241
 21
13.473698744640551
 31
0.0
  0
LINE
  5
5AE54
  8
0
 62
     0
 10
25.704436350476598
 20
13.57313563574491
 30
0.0
 11
25.704436350476598
 21
13.57313563574491
 31
0.0
  0
LINE
  5
5AE55
  8
0
 62
     0
 10
25.803873241580959
 20
13.672572526849271
 30
0.0
 11
25.803873241580959
 21
13.672572526849271
 31
0.0
  0
LINE
  5
5AE56
  8
0
 62
     0
 10
18.694135527619348
 20
6.761708595096362
 30
0.0
 11
18.694135527619348
 21
6.761708595096362
 31
0.0
  0
LINE
  5
5AE57
  8
0
 62
     0
 10
18.793572418723699
 20
6.8611454862007211
 30
0.0
 11
18.793572418723699
 21
6.8611454862007211
 31
0.0
  0
LINE
  5
5AE58
  8
0
 62
     0
 10
18.893009309828059
 20
6.9605823773050792
 30
0.0
 11
18.893009309828059
 21
6.9605823773050792
 31
0.0
  0
LINE
  5
5AE59
  8
0
 62
     0
 10
18.99244620093242
 20
7.0600192684094374
 30
0.0
 11
18.99244620093242
 21
7.0600192684094374
 31
0.0
  0
LINE
  5
5AE5A
  8
0
 62
     0
 10
19.091883092036781
 20
7.1594561595137947
 30
0.0
 11
19.091883092036781
 21
7.1594561595137947
 31
0.0
  0
LINE
  5
5AE5B
  8
0
 62
     0
 10
19.191319983141131
 20
7.2588930506181528
 30
0.0
 11
19.191319983141131
 21
7.2588930506181528
 31
0.0
  0
LINE
  5
5AE5C
  8
0
 62
     0
 10
19.290756874245488
 20
7.358329941722511
 30
0.0
 11
19.290756874245488
 21
7.358329941722511
 31
0.0
  0
LINE
  5
5AE5D
  8
0
 62
     0
 10
19.390193765349849
 20
7.45776683282687
 30
0.0
 11
19.390193765349849
 21
7.45776683282687
 31
0.0
  0
LINE
  5
5AE5E
  8
0
 62
     0
 10
19.489630656454199
 20
7.5572037239312282
 30
0.0
 11
19.489630656454199
 21
7.5572037239312282
 31
0.0
  0
LINE
  5
5AE5F
  8
0
 62
     0
 10
19.58906754755856
 20
7.6566406150355864
 30
0.0
 11
19.58906754755856
 21
7.6566406150355864
 31
0.0
  0
LINE
  5
5AE60
  8
0
 62
     0
 10
19.688504438662921
 20
7.7560775061399436
 30
0.0
 11
19.688504438662921
 21
7.7560775061399436
 31
0.0
  0
LINE
  5
5AE61
  8
0
 62
     0
 10
19.787941329767278
 20
7.8555143972443018
 30
0.0
 11
19.787941329767278
 21
7.8555143972443018
 31
0.0
  0
LINE
  5
5AE62
  8
0
 62
     0
 10
19.887378220871629
 20
7.9549512883486599
 30
0.0
 11
19.887378220871629
 21
7.9549512883486599
 31
0.0
  0
LINE
  5
5AE63
  8
0
 62
     0
 10
19.986815111975989
 20
8.0543881794530172
 30
0.0
 11
19.986815111975989
 21
8.0543881794530172
 31
0.0
  0
LINE
  5
5AE64
  8
0
 62
     0
 10
20.08625200308035
 20
8.153825070557378
 30
0.0
 11
20.08625200308035
 21
8.153825070557378
 31
0.0
  0
LINE
  5
5AE65
  8
0
 62
     0
 10
20.185688894184711
 20
8.2532619616617371
 30
0.0
 11
20.185688894184711
 21
8.2532619616617371
 31
0.0
  0
LINE
  5
5AE66
  8
0
 62
     0
 10
20.285125785289068
 20
8.3526988527660961
 30
0.0
 11
20.285125785289068
 21
8.3526988527660961
 31
0.0
  0
LINE
  5
5AE67
  8
0
 62
     0
 10
20.384562676393418
 20
8.4521357438704552
 30
0.0
 11
20.384562676393418
 21
8.4521357438704552
 31
0.0
  0
LINE
  5
5AE68
  8
0
 62
     0
 10
20.483999567497779
 20
8.5515726349748142
 30
0.0
 11
20.483999567497779
 21
8.5515726349748142
 31
0.0
  0
LINE
  5
5AE69
  8
0
 62
     0
 10
20.58343645860214
 20
8.6510095260791733
 30
0.0
 11
20.58343645860214
 21
8.6510095260791733
 31
0.0
  0
LINE
  5
5AE6A
  8
0
 62
     0
 10
20.682873349706501
 20
8.7504464171835323
 30
0.0
 11
20.682873349706501
 21
8.7504464171835323
 31
0.0
  0
LINE
  5
5AE6B
  8
0
 62
     0
 10
20.782310240810851
 20
8.8498833082878914
 30
0.0
 11
20.782310240810851
 21
8.8498833082878914
 31
0.0
  0
LINE
  5
5AE6C
  8
0
 62
     0
 10
20.881747131915208
 20
8.9493201993922504
 30
0.0
 11
20.881747131915208
 21
8.9493201993922504
 31
0.0
  0
LINE
  5
5AE6D
  8
0
 62
     0
 10
20.981184023019569
 20
9.0487570904966095
 30
0.0
 11
20.981184023019569
 21
9.0487570904966095
 31
0.0
  0
LINE
  5
5AE6E
  8
0
 62
     0
 10
21.080620914123919
 20
9.1481939816009685
 30
0.0
 11
21.080620914123919
 21
9.1481939816009685
 31
0.0
  0
LINE
  5
5AE6F
  8
0
 62
     0
 10
21.18005780522828
 20
9.2476308727053276
 30
0.0
 11
21.18005780522828
 21
9.2476308727053276
 31
0.0
  0
LINE
  5
5AE70
  8
0
 62
     0
 10
21.279494696332641
 20
9.3470677638096866
 30
0.0
 11
21.279494696332641
 21
9.3470677638096866
 31
0.0
  0
LINE
  5
5AE71
  8
0
 62
     0
 10
21.378931587436998
 20
9.4465046549140457
 30
0.0
 11
21.378931587436998
 21
9.4465046549140457
 31
0.0
  0
LINE
  5
5AE72
  8
0
 62
     0
 10
21.478368478541348
 20
9.5459415460184047
 30
0.0
 11
21.478368478541348
 21
9.5459415460184047
 31
0.0
  0
LINE
  5
5AE73
  8
0
 62
     0
 10
21.577805369645709
 20
9.6453784371227638
 30
0.0
 11
21.577805369645709
 21
9.6453784371227638
 31
0.0
  0
LINE
  5
5AE74
  8
0
 62
     0
 10
21.67724226075007
 20
9.7448153282271228
 30
0.0
 11
21.67724226075007
 21
9.7448153282271228
 31
0.0
  0
LINE
  5
5AE75
  8
0
 62
     0
 10
21.776679151854431
 20
9.8442522193314819
 30
0.0
 11
21.776679151854431
 21
9.8442522193314819
 31
0.0
  0
LINE
  5
5AE76
  8
0
 62
     0
 10
21.876116042958781
 20
9.9436891104358391
 30
0.0
 11
21.876116042958781
 21
9.9436891104358391
 31
0.0
  0
LINE
  5
5AE77
  8
0
 62
     0
 10
21.975552934063138
 20
10.0431260015402
 30
0.0
 11
21.975552934063138
 21
10.0431260015402
 31
0.0
  0
LINE
  5
5AE78
  8
0
 62
     0
 10
22.074989825167489
 20
10.142562892644561
 30
0.0
 11
22.074989825167489
 21
10.142562892644561
 31
0.0
  0
LINE
  5
5AE79
  8
0
 62
     0
 10
22.17442671627186
 20
10.24199978374892
 30
0.0
 11
22.17442671627186
 21
10.24199978374892
 31
0.0
  0
LINE
  5
5AE7A
  8
0
 62
     0
 10
22.27386360737621
 20
10.34143667485327
 30
0.0
 11
22.27386360737621
 21
10.34143667485327
 31
0.0
  0
LINE
  5
5AE7B
  8
0
 62
     0
 10
22.373300498480571
 20
10.440873565957631
 30
0.0
 11
22.373300498480571
 21
10.440873565957631
 31
0.0
  0
LINE
  5
5AE7C
  8
0
 62
     0
 10
22.472737389584921
 20
10.54031045706199
 30
0.0
 11
22.472737389584921
 21
10.54031045706199
 31
0.0
  0
LINE
  5
5AE7D
  8
0
 62
     0
 10
22.572174280689278
 20
10.639747348166351
 30
0.0
 11
22.572174280689278
 21
10.639747348166351
 31
0.0
  0
LINE
  5
5AE7E
  8
0
 62
     0
 10
22.671611171793639
 20
10.73918423927071
 30
0.0
 11
22.671611171793639
 21
10.73918423927071
 31
0.0
  0
LINE
  5
5AE7F
  8
0
 62
     0
 10
22.771048062898
 20
10.838621130375071
 30
0.0
 11
22.771048062898
 21
10.838621130375071
 31
0.0
  0
LINE
  5
5AE80
  8
0
 62
     0
 10
22.87048495400235
 20
10.93805802147943
 30
0.0
 11
22.87048495400235
 21
10.93805802147943
 31
0.0
  0
LINE
  5
5AE81
  8
0
 62
     0
 10
22.969921845106711
 20
11.03749491258379
 30
0.0
 11
22.969921845106711
 21
11.03749491258379
 31
0.0
  0
LINE
  5
5AE82
  8
0
 62
     0
 10
23.069358736211068
 20
11.13693180368815
 30
0.0
 11
23.069358736211068
 21
11.13693180368815
 31
0.0
  0
LINE
  5
5AE83
  8
0
 62
     0
 10
23.168795627315429
 20
11.23636869479251
 30
0.0
 11
23.168795627315429
 21
11.23636869479251
 31
0.0
  0
LINE
  5
5AE84
  8
0
 62
     0
 10
23.268232518419779
 20
11.33580558589686
 30
0.0
 11
23.268232518419779
 21
11.33580558589686
 31
0.0
  0
LINE
  5
5AE85
  8
0
 62
     0
 10
23.36766940952414
 20
11.43524247700122
 30
0.0
 11
23.36766940952414
 21
11.43524247700122
 31
0.0
  0
LINE
  5
5AE86
  8
0
 62
     0
 10
23.467106300628501
 20
11.53467936810558
 30
0.0
 11
23.467106300628501
 21
11.53467936810558
 31
0.0
  0
LINE
  5
5AE87
  8
0
 62
     0
 10
23.566543191732851
 20
11.634116259209939
 30
0.0
 11
23.566543191732851
 21
11.634116259209939
 31
0.0
  0
LINE
  5
5AE88
  8
0
 62
     0
 10
23.665980082837208
 20
11.7335531503143
 30
0.0
 11
23.665980082837208
 21
11.7335531503143
 31
0.0
  0
LINE
  5
5AE89
  8
0
 62
     0
 10
23.765416973941569
 20
11.832990041418659
 30
0.0
 11
23.765416973941569
 21
11.832990041418659
 31
0.0
  0
LINE
  5
5AE8A
  8
0
 62
     0
 10
23.86485386504593
 20
11.93242693252302
 30
0.0
 11
23.86485386504593
 21
11.93242693252302
 31
0.0
  0
LINE
  5
5AE8B
  8
0
 62
     0
 10
23.96429075615028
 20
12.031863823627379
 30
0.0
 11
23.96429075615028
 21
12.031863823627379
 31
0.0
  0
LINE
  5
5AE8C
  8
0
 62
     0
 10
24.063727647254641
 20
12.13130071473174
 30
0.0
 11
24.063727647254641
 21
12.13130071473174
 31
0.0
  0
LINE
  5
5AE8D
  8
0
 62
     0
 10
24.163164538358998
 20
12.230737605836101
 30
0.0
 11
24.163164538358998
 21
12.230737605836101
 31
0.0
  0
LINE
  5
5AE8E
  8
0
 62
     0
 10
24.262601429463359
 20
12.33017449694046
 30
0.0
 11
24.262601429463359
 21
12.33017449694046
 31
0.0
  0
LINE
  5
5AE8F
  8
0
 62
     0
 10
24.362038320567709
 20
12.429611388044821
 30
0.0
 11
24.362038320567709
 21
12.429611388044821
 31
0.0
  0
LINE
  5
5AE90
  8
0
 62
     0
 10
24.46147521167207
 20
12.529048279149171
 30
0.0
 11
24.46147521167207
 21
12.529048279149171
 31
0.0
  0
LINE
  5
5AE91
  8
0
 62
     0
 10
24.560912102776431
 20
12.62848517025353
 30
0.0
 11
24.560912102776431
 21
12.62848517025353
 31
0.0
  0
LINE
  5
5AE92
  8
0
 62
     0
 10
24.660348993880788
 20
12.727922061357891
 30
0.0
 11
24.660348993880788
 21
12.727922061357891
 31
0.0
  0
LINE
  5
5AE93
  8
0
 62
     0
 10
24.759785884985138
 20
12.82735895246225
 30
0.0
 11
24.759785884985138
 21
12.82735895246225
 31
0.0
  0
LINE
  5
5AE94
  8
0
 62
     0
 10
24.859222776089499
 20
12.926795843566611
 30
0.0
 11
24.859222776089499
 21
12.926795843566611
 31
0.0
  0
LINE
  5
5AE95
  8
0
 62
     0
 10
24.95865966719386
 20
13.02623273467097
 30
0.0
 11
24.95865966719386
 21
13.02623273467097
 31
0.0
  0
LINE
  5
5AE96
  8
0
 62
     0
 10
25.058096558298221
 20
13.12566962577533
 30
0.0
 11
25.058096558298221
 21
13.12566962577533
 31
0.0
  0
LINE
  5
5AE97
  8
0
 62
     0
 10
25.157533449402571
 20
13.22510651687969
 30
0.0
 11
25.157533449402571
 21
13.22510651687969
 31
0.0
  0
LINE
  5
5AE98
  8
0
 62
     0
 10
25.256970340506928
 20
13.32454340798405
 30
0.0
 11
25.256970340506928
 21
13.32454340798405
 31
0.0
  0
LINE
  5
5AE99
  8
0
 62
     0
 10
25.356407231611289
 20
13.423980299088409
 30
0.0
 11
25.356407231611289
 21
13.423980299088409
 31
0.0
  0
LINE
  5
5AE9A
  8
0
 62
     0
 10
25.455844122715639
 20
13.52341719019277
 30
0.0
 11
25.455844122715639
 21
13.52341719019277
 31
0.0
  0
LINE
  5
5AE9B
  8
0
 62
     0
 10
25.55528101382
 20
13.62285408129712
 30
0.0
 11
25.55528101382
 21
13.62285408129712
 31
0.0
  0
LINE
  5
5AE9C
  8
0
 62
     0
 10
25.654717904924361
 20
13.722290972401479
 30
0.0
 11
25.654717904924361
 21
13.722290972401479
 31
0.0
  0
LINE
  5
5AE9D
  8
0
 62
     0
 10
18.94272775538025
 20
7.2091746050659751
 30
0.0
 11
18.94272775538025
 21
7.2091746050659751
 31
0.0
  0
LINE
  5
5AE9E
  8
0
 62
     0
 10
19.042164646484601
 20
7.3086114961703341
 30
0.0
 11
19.042164646484601
 21
7.3086114961703341
 31
0.0
  0
LINE
  5
5AE9F
  8
0
 62
     0
 10
19.141601537588961
 20
7.4080483872746923
 30
0.0
 11
19.141601537588961
 21
7.4080483872746923
 31
0.0
  0
LINE
  5
5AEA0
  8
0
 62
     0
 10
19.241038428693319
 20
7.5074852783790504
 30
0.0
 11
19.241038428693319
 21
7.5074852783790504
 31
0.0
  0
LINE
  5
5AEA1
  8
0
 62
     0
 10
19.340475319797669
 20
7.6069221694834077
 30
0.0
 11
19.340475319797669
 21
7.6069221694834077
 31
0.0
  0
LINE
  5
5AEA2
  8
0
 62
     0
 10
19.43991221090203
 20
7.7063590605877659
 30
0.0
 11
19.43991221090203
 21
7.7063590605877659
 31
0.0
  0
LINE
  5
5AEA3
  8
0
 62
     0
 10
19.539349102006391
 20
7.805795951692124
 30
0.0
 11
19.539349102006391
 21
7.805795951692124
 31
0.0
  0
LINE
  5
5AEA4
  8
0
 62
     0
 10
19.638785993110741
 20
7.9052328427964831
 30
0.0
 11
19.638785993110741
 21
7.9052328427964831
 31
0.0
  0
LINE
  5
5AEA5
  8
0
 62
     0
 10
19.738222884215102
 20
8.0046697339008421
 30
0.0
 11
19.738222884215102
 21
8.0046697339008421
 31
0.0
  0
LINE
  5
5AEA6
  8
0
 62
     0
 10
19.837659775319459
 20
8.1041066250052012
 30
0.0
 11
19.837659775319459
 21
8.1041066250052012
 31
0.0
  0
LINE
  5
5AEA7
  8
0
 62
     0
 10
19.93709666642382
 20
8.2035435161095602
 30
0.0
 11
19.93709666642382
 21
8.2035435161095602
 31
0.0
  0
LINE
  5
5AEA8
  8
0
 62
     0
 10
20.03653355752818
 20
8.3029804072139193
 30
0.0
 11
20.03653355752818
 21
8.3029804072139193
 31
0.0
  0
LINE
  5
5AEA9
  8
0
 62
     0
 10
20.135970448632531
 20
8.4024172983182783
 30
0.0
 11
20.135970448632531
 21
8.4024172983182783
 31
0.0
  0
LINE
  5
5AEAA
  8
0
 62
     0
 10
20.235407339736891
 20
8.5018541894226374
 30
0.0
 11
20.235407339736891
 21
8.5018541894226374
 31
0.0
  0
LINE
  5
5AEAB
  8
0
 62
     0
 10
20.334844230841249
 20
8.6012910805269964
 30
0.0
 11
20.334844230841249
 21
8.6012910805269964
 31
0.0
  0
LINE
  5
5AEAC
  8
0
 62
     0
 10
20.43428112194561
 20
8.7007279716313555
 30
0.0
 11
20.43428112194561
 21
8.7007279716313555
 31
0.0
  0
LINE
  5
5AEAD
  8
0
 62
     0
 10
20.53371801304996
 20
8.8001648627357145
 30
0.0
 11
20.53371801304996
 21
8.8001648627357145
 31
0.0
  0
LINE
  5
5AEAE
  8
0
 62
     0
 10
20.633154904154321
 20
8.8996017538400736
 30
0.0
 11
20.633154904154321
 21
8.8996017538400736
 31
0.0
  0
LINE
  5
5AEAF
  8
0
 62
     0
 10
20.732591795258681
 20
8.9990386449444326
 30
0.0
 11
20.732591795258681
 21
8.9990386449444326
 31
0.0
  0
LINE
  5
5AEB0
  8
0
 62
     0
 10
20.832028686363039
 20
9.0984755360487917
 30
0.0
 11
20.832028686363039
 21
9.0984755360487917
 31
0.0
  0
LINE
  5
5AEB1
  8
0
 62
     0
 10
20.931465577467389
 20
9.1979124271531507
 30
0.0
 11
20.931465577467389
 21
9.1979124271531507
 31
0.0
  0
LINE
  5
5AEB2
  8
0
 62
     0
 10
21.03090246857175
 20
9.2973493182575098
 30
0.0
 11
21.03090246857175
 21
9.2973493182575098
 31
0.0
  0
LINE
  5
5AEB3
  8
0
 62
     0
 10
21.13033935967611
 20
9.3967862093618688
 30
0.0
 11
21.13033935967611
 21
9.3967862093618688
 31
0.0
  0
LINE
  5
5AEB4
  8
0
 62
     0
 10
21.229776250780461
 20
9.4962231004662279
 30
0.0
 11
21.229776250780461
 21
9.4962231004662279
 31
0.0
  0
LINE
  5
5AEB5
  8
0
 62
     0
 10
21.329213141884821
 20
9.5956599915705851
 30
0.0
 11
21.329213141884821
 21
9.5956599915705851
 31
0.0
  0
LINE
  5
5AEB6
  8
0
 62
     0
 10
21.428650032989179
 20
9.6950968826749442
 30
0.0
 11
21.428650032989179
 21
9.6950968826749442
 31
0.0
  0
LINE
  5
5AEB7
  8
0
 62
     0
 10
21.52808692409354
 20
9.794533773779305
 30
0.0
 11
21.52808692409354
 21
9.794533773779305
 31
0.0
  0
LINE
  5
5AEB8
  8
0
 62
     0
 10
21.62752381519789
 20
9.8939706648836641
 30
0.0
 11
21.62752381519789
 21
9.8939706648836641
 31
0.0
  0
LINE
  5
5AEB9
  8
0
 62
     0
 10
21.726960706302251
 20
9.9934075559880231
 30
0.0
 11
21.726960706302251
 21
9.9934075559880231
 31
0.0
  0
LINE
  5
5AEBA
  8
0
 62
     0
 10
21.826397597406611
 20
10.09284444709238
 30
0.0
 11
21.826397597406611
 21
10.09284444709238
 31
0.0
  0
LINE
  5
5AEBB
  8
0
 62
     0
 10
21.925834488510969
 20
10.192281338196739
 30
0.0
 11
21.925834488510969
 21
10.192281338196739
 31
0.0
  0
LINE
  5
5AEBC
  8
0
 62
     0
 10
22.025271379615319
 20
10.2917182293011
 30
0.0
 11
22.025271379615319
 21
10.2917182293011
 31
0.0
  0
LINE
  5
5AEBD
  8
0
 62
     0
 10
22.12470827071968
 20
10.391155120405459
 30
0.0
 11
22.12470827071968
 21
10.391155120405459
 31
0.0
  0
LINE
  5
5AEBE
  8
0
 62
     0
 10
22.22414516182404
 20
10.49059201150982
 30
0.0
 11
22.22414516182404
 21
10.49059201150982
 31
0.0
  0
LINE
  5
5AEBF
  8
0
 62
     0
 10
22.323582052928401
 20
10.59002890261417
 30
0.0
 11
22.323582052928401
 21
10.59002890261417
 31
0.0
  0
LINE
  5
5AEC0
  8
0
 62
     0
 10
22.423018944032751
 20
10.689465793718529
 30
0.0
 11
22.423018944032751
 21
10.689465793718529
 31
0.0
  0
LINE
  5
5AEC1
  8
0
 62
     0
 10
22.522455835137109
 20
10.78890268482289
 30
0.0
 11
22.522455835137109
 21
10.78890268482289
 31
0.0
  0
LINE
  5
5AEC2
  8
0
 62
     0
 10
22.62189272624147
 20
10.888339575927249
 30
0.0
 11
22.62189272624147
 21
10.888339575927249
 31
0.0
  0
LINE
  5
5AEC3
  8
0
 62
     0
 10
22.72132961734582
 20
10.98777646703161
 30
0.0
 11
22.72132961734582
 21
10.98777646703161
 31
0.0
  0
LINE
  5
5AEC4
  8
0
 62
     0
 10
22.820766508450181
 20
11.087213358135971
 30
0.0
 11
22.820766508450181
 21
11.087213358135971
 31
0.0
  0
LINE
  5
5AEC5
  8
0
 62
     0
 10
22.920203399554541
 20
11.18665024924033
 30
0.0
 11
22.920203399554541
 21
11.18665024924033
 31
0.0
  0
LINE
  5
5AEC6
  8
0
 62
     0
 10
23.019640290658899
 20
11.286087140344691
 30
0.0
 11
23.019640290658899
 21
11.286087140344691
 31
0.0
  0
LINE
  5
5AEC7
  8
0
 62
     0
 10
23.119077181763249
 20
11.38552403144905
 30
0.0
 11
23.119077181763249
 21
11.38552403144905
 31
0.0
  0
LINE
  5
5AEC8
  8
0
 62
     0
 10
23.21851407286761
 20
11.484960922553411
 30
0.0
 11
23.21851407286761
 21
11.484960922553411
 31
0.0
  0
LINE
  5
5AEC9
  8
0
 62
     0
 10
23.31795096397197
 20
11.584397813657761
 30
0.0
 11
23.31795096397197
 21
11.584397813657761
 31
0.0
  0
LINE
  5
5AECA
  8
0
 62
     0
 10
23.417387855076331
 20
11.68383470476213
 30
0.0
 11
23.417387855076331
 21
11.68383470476213
 31
0.0
  0
LINE
  5
5AECB
  8
0
 62
     0
 10
23.516824746180681
 20
11.783271595866481
 30
0.0
 11
23.516824746180681
 21
11.783271595866481
 31
0.0
  0
LINE
  5
5AECC
  8
0
 62
     0
 10
23.616261637285039
 20
11.88270848697084
 30
0.0
 11
23.616261637285039
 21
11.88270848697084
 31
0.0
  0
LINE
  5
5AECD
  8
0
 62
     0
 10
23.715698528389389
 20
11.982145378075201
 30
0.0
 11
23.715698528389389
 21
11.982145378075201
 31
0.0
  0
LINE
  5
5AECE
  8
0
 62
     0
 10
23.81513541949376
 20
12.08158226917956
 30
0.0
 11
23.81513541949376
 21
12.08158226917956
 31
0.0
  0
LINE
  5
5AECF
  8
0
 62
     0
 10
23.914572310598111
 20
12.18101916028392
 30
0.0
 11
23.914572310598111
 21
12.18101916028392
 31
0.0
  0
LINE
  5
5AED0
  8
0
 62
     0
 10
24.014009201702471
 20
12.280456051388279
 30
0.0
 11
24.014009201702471
 21
12.280456051388279
 31
0.0
  0
LINE
  5
5AED1
  8
0
 62
     0
 10
24.113446092806821
 20
12.37989294249264
 30
0.0
 11
24.113446092806821
 21
12.37989294249264
 31
0.0
  0
LINE
  5
5AED2
  8
0
 62
     0
 10
24.212882983911189
 20
12.479329833596999
 30
0.0
 11
24.212882983911189
 21
12.479329833596999
 31
0.0
  0
LINE
  5
5AED3
  8
0
 62
     0
 10
24.31231987501554
 20
12.57876672470136
 30
0.0
 11
24.31231987501554
 21
12.57876672470136
 31
0.0
  0
LINE
  5
5AED4
  8
0
 62
     0
 10
24.4117567661199
 20
12.678203615805719
 30
0.0
 11
24.4117567661199
 21
12.678203615805719
 31
0.0
  0
LINE
  5
5AED5
  8
0
 62
     0
 10
24.511193657224251
 20
12.777640506910069
 30
0.0
 11
24.511193657224251
 21
12.777640506910069
 31
0.0
  0
LINE
  5
5AED6
  8
0
 62
     0
 10
24.610630548328611
 20
12.87707739801443
 30
0.0
 11
24.610630548328611
 21
12.87707739801443
 31
0.0
  0
LINE
  5
5AED7
  8
0
 62
     0
 10
24.710067439432969
 20
12.976514289118789
 30
0.0
 11
24.710067439432969
 21
12.976514289118789
 31
0.0
  0
LINE
  5
5AED8
  8
0
 62
     0
 10
24.80950433053733
 20
13.07595118022315
 30
0.0
 11
24.80950433053733
 21
13.07595118022315
 31
0.0
  0
LINE
  5
5AED9
  8
0
 62
     0
 10
24.90894122164168
 20
13.175388071327511
 30
0.0
 11
24.90894122164168
 21
13.175388071327511
 31
0.0
  0
LINE
  5
5AEDA
  8
0
 62
     0
 10
25.008378112746041
 20
13.27482496243187
 30
0.0
 11
25.008378112746041
 21
13.27482496243187
 31
0.0
  0
LINE
  5
5AEDB
  8
0
 62
     0
 10
25.107815003850401
 20
13.374261853536231
 30
0.0
 11
25.107815003850401
 21
13.374261853536231
 31
0.0
  0
LINE
  5
5AEDC
  8
0
 62
     0
 10
25.207251894954759
 20
13.47369874464059
 30
0.0
 11
25.207251894954759
 21
13.47369874464059
 31
0.0
  0
LINE
  5
5AEDD
  8
0
 62
     0
 10
25.306688786059109
 20
13.573135635744951
 30
0.0
 11
25.306688786059109
 21
13.573135635744951
 31
0.0
  0
LINE
  5
5AEDE
  8
0
 62
     0
 10
25.40612567716347
 20
13.67257252684931
 30
0.0
 11
25.40612567716347
 21
13.67257252684931
 31
0.0
  0
LINE
  5
5AEDF
  8
0
 62
     0
 10
25.50556256826783
 20
13.772009417953671
 30
0.0
 11
25.50556256826783
 21
13.772009417953671
 31
0.0
  0
LINE
  5
5AEE0
  8
0
 62
     0
 10
19.191319983141138
 20
7.6566406150355872
 30
0.0
 11
19.191319983141138
 21
7.6566406150355872
 31
0.0
  0
LINE
  5
5AEE1
  8
0
 62
     0
 10
19.290756874245499
 20
7.7560775061399454
 30
0.0
 11
19.290756874245499
 21
7.7560775061399454
 31
0.0
  0
LINE
  5
5AEE2
  8
0
 62
     0
 10
19.390193765349849
 20
7.8555143972443027
 30
0.0
 11
19.390193765349849
 21
7.8555143972443027
 31
0.0
  0
LINE
  5
5AEE3
  8
0
 62
     0
 10
19.48963065645421
 20
7.9549512883486608
 30
0.0
 11
19.48963065645421
 21
7.9549512883486608
 31
0.0
  0
LINE
  5
5AEE4
  8
0
 62
     0
 10
19.589067547558571
 20
8.0543881794530208
 30
0.0
 11
19.589067547558571
 21
8.0543881794530208
 31
0.0
  0
LINE
  5
5AEE5
  8
0
 62
     0
 10
19.688504438662921
 20
8.1538250705573798
 30
0.0
 11
19.688504438662921
 21
8.1538250705573798
 31
0.0
  0
LINE
  5
5AEE6
  8
0
 62
     0
 10
19.787941329767278
 20
8.2532619616617389
 30
0.0
 11
19.787941329767278
 21
8.2532619616617389
 31
0.0
  0
LINE
  5
5AEE7
  8
0
 62
     0
 10
19.887378220871639
 20
8.3526988527660961
 30
0.0
 11
19.887378220871639
 21
8.3526988527660961
 31
0.0
  0
LINE
  5
5AEE8
  8
0
 62
     0
 10
19.986815111976
 20
8.4521357438704552
 30
0.0
 11
19.986815111976
 21
8.4521357438704552
 31
0.0
  0
LINE
  5
5AEE9
  8
0
 62
     0
 10
20.086252003080361
 20
8.551572634974816
 30
0.0
 11
20.086252003080361
 21
8.551572634974816
 31
0.0
  0
LINE
  5
5AEEA
  8
0
 62
     0
 10
20.185688894184711
 20
8.6510095260791751
 30
0.0
 11
20.185688894184711
 21
8.6510095260791751
 31
0.0
  0
LINE
  5
5AEEB
  8
0
 62
     0
 10
20.285125785289068
 20
8.7504464171835341
 30
0.0
 11
20.285125785289068
 21
8.7504464171835341
 31
0.0
  0
LINE
  5
5AEEC
  8
0
 62
     0
 10
20.384562676393429
 20
8.8498833082878932
 30
0.0
 11
20.384562676393429
 21
8.8498833082878932
 31
0.0
  0
LINE
  5
5AEED
  8
0
 62
     0
 10
20.48399956749779
 20
8.9493201993922522
 30
0.0
 11
20.48399956749779
 21
8.9493201993922522
 31
0.0
  0
LINE
  5
5AEEE
  8
0
 62
     0
 10
20.58343645860214
 20
9.0487570904966113
 30
0.0
 11
20.58343645860214
 21
9.0487570904966113
 31
0.0
  0
LINE
  5
5AEEF
  8
0
 62
     0
 10
20.682873349706501
 20
9.1481939816009703
 30
0.0
 11
20.682873349706501
 21
9.1481939816009703
 31
0.0
  0
LINE
  5
5AEF0
  8
0
 62
     0
 10
20.782310240810862
 20
9.2476308727053294
 30
0.0
 11
20.782310240810862
 21
9.2476308727053294
 31
0.0
  0
LINE
  5
5AEF1
  8
0
 62
     0
 10
20.881747131915219
 20
9.3470677638096884
 30
0.0
 11
20.881747131915219
 21
9.3470677638096884
 31
0.0
  0
LINE
  5
5AEF2
  8
0
 62
     0
 10
20.981184023019569
 20
9.4465046549140474
 30
0.0
 11
20.981184023019569
 21
9.4465046549140474
 31
0.0
  0
LINE
  5
5AEF3
  8
0
 62
     0
 10
21.08062091412393
 20
9.5459415460184065
 30
0.0
 11
21.08062091412393
 21
9.5459415460184065
 31
0.0
  0
LINE
  5
5AEF4
  8
0
 62
     0
 10
21.180057805228291
 20
9.6453784371227655
 30
0.0
 11
21.180057805228291
 21
9.6453784371227655
 31
0.0
  0
LINE
  5
5AEF5
  8
0
 62
     0
 10
21.279494696332641
 20
9.7448153282271246
 30
0.0
 11
21.279494696332641
 21
9.7448153282271246
 31
0.0
  0
LINE
  5
5AEF6
  8
0
 62
     0
 10
21.378931587436998
 20
9.8442522193314836
 30
0.0
 11
21.378931587436998
 21
9.8442522193314836
 31
0.0
  0
LINE
  5
5AEF7
  8
0
 62
     0
 10
21.478368478541359
 20
9.9436891104358427
 30
0.0
 11
21.478368478541359
 21
9.9436891104358427
 31
0.0
  0
LINE
  5
5AEF8
  8
0
 62
     0
 10
21.57780536964572
 20
10.0431260015402
 30
0.0
 11
21.57780536964572
 21
10.0431260015402
 31
0.0
  0
LINE
  5
5AEF9
  8
0
 62
     0
 10
21.67724226075007
 20
10.142562892644561
 30
0.0
 11
21.67724226075007
 21
10.142562892644561
 31
0.0
  0
LINE
  5
5AEFA
  8
0
 62
     0
 10
21.776679151854431
 20
10.24199978374892
 30
0.0
 11
21.776679151854431
 21
10.24199978374892
 31
0.0
  0
LINE
  5
5AEFB
  8
0
 62
     0
 10
21.876116042958792
 20
10.341436674853281
 30
0.0
 11
21.876116042958792
 21
10.341436674853281
 31
0.0
  0
LINE
  5
5AEFC
  8
0
 62
     0
 10
21.975552934063149
 20
10.44087356595764
 30
0.0
 11
21.975552934063149
 21
10.44087356595764
 31
0.0
  0
LINE
  5
5AEFD
  8
0
 62
     0
 10
22.074989825167499
 20
10.54031045706199
 30
0.0
 11
22.074989825167499
 21
10.54031045706199
 31
0.0
  0
LINE
  5
5AEFE
  8
0
 62
     0
 10
22.17442671627186
 20
10.639747348166351
 30
0.0
 11
22.17442671627186
 21
10.639747348166351
 31
0.0
  0
LINE
  5
5AEFF
  8
0
 62
     0
 10
22.273863607376221
 20
10.73918423927071
 30
0.0
 11
22.273863607376221
 21
10.73918423927071
 31
0.0
  0
LINE
  5
5AF00
  8
0
 62
     0
 10
22.373300498480582
 20
10.838621130375071
 30
0.0
 11
22.373300498480582
 21
10.838621130375071
 31
0.0
  0
LINE
  5
5AF01
  8
0
 62
     0
 10
22.472737389584928
 20
10.93805802147943
 30
0.0
 11
22.472737389584928
 21
10.93805802147943
 31
0.0
  0
LINE
  5
5AF02
  8
0
 62
     0
 10
22.572174280689289
 20
11.03749491258379
 30
0.0
 11
22.572174280689289
 21
11.03749491258379
 31
0.0
  0
LINE
  5
5AF03
  8
0
 62
     0
 10
22.67161117179365
 20
11.13693180368815
 30
0.0
 11
22.67161117179365
 21
11.13693180368815
 31
0.0
  0
LINE
  5
5AF04
  8
0
 62
     0
 10
22.771048062898
 20
11.23636869479251
 30
0.0
 11
22.771048062898
 21
11.23636869479251
 31
0.0
  0
LINE
  5
5AF05
  8
0
 62
     0
 10
22.870484954002361
 20
11.335805585896869
 30
0.0
 11
22.870484954002361
 21
11.335805585896869
 31
0.0
  0
LINE
  5
5AF06
  8
0
 62
     0
 10
22.969921845106722
 20
11.43524247700123
 30
0.0
 11
22.969921845106722
 21
11.43524247700123
 31
0.0
  0
LINE
  5
5AF07
  8
0
 62
     0
 10
23.069358736211079
 20
11.53467936810558
 30
0.0
 11
23.069358736211079
 21
11.53467936810558
 31
0.0
  0
LINE
  5
5AF08
  8
0
 62
     0
 10
23.168795627315429
 20
11.63411625920995
 30
0.0
 11
23.168795627315429
 21
11.63411625920995
 31
0.0
  0
LINE
  5
5AF09
  8
0
 62
     0
 10
23.26823251841979
 20
11.7335531503143
 30
0.0
 11
23.26823251841979
 21
11.7335531503143
 31
0.0
  0
LINE
  5
5AF0A
  8
0
 62
     0
 10
23.367669409524151
 20
11.832990041418659
 30
0.0
 11
23.367669409524151
 21
11.832990041418659
 31
0.0
  0
LINE
  5
5AF0B
  8
0
 62
     0
 10
23.467106300628512
 20
11.93242693252302
 30
0.0
 11
23.467106300628512
 21
11.93242693252302
 31
0.0
  0
LINE
  5
5AF0C
  8
0
 62
     0
 10
23.566543191732858
 20
12.031863823627379
 30
0.0
 11
23.566543191732858
 21
12.031863823627379
 31
0.0
  0
LINE
  5
5AF0D
  8
0
 62
     0
 10
23.665980082837219
 20
12.13130071473174
 30
0.0
 11
23.665980082837219
 21
12.13130071473174
 31
0.0
  0
LINE
  5
5AF0E
  8
0
 62
     0
 10
23.765416973941569
 20
12.230737605836101
 30
0.0
 11
23.765416973941569
 21
12.230737605836101
 31
0.0
  0
LINE
  5
5AF0F
  8
0
 62
     0
 10
23.864853865045941
 20
12.33017449694046
 30
0.0
 11
23.864853865045941
 21
12.33017449694046
 31
0.0
  0
LINE
  5
5AF10
  8
0
 62
     0
 10
23.964290756150291
 20
12.429611388044821
 30
0.0
 11
23.964290756150291
 21
12.429611388044821
 31
0.0
  0
LINE
  5
5AF11
  8
0
 62
     0
 10
24.063727647254652
 20
12.52904827914918
 30
0.0
 11
24.063727647254652
 21
12.52904827914918
 31
0.0
  0
LINE
  5
5AF12
  8
0
 62
     0
 10
24.163164538358998
 20
12.628485170253541
 30
0.0
 11
24.163164538358998
 21
12.628485170253541
 31
0.0
  0
LINE
  5
5AF13
  8
0
 62
     0
 10
24.26260142946337
 20
12.727922061357891
 30
0.0
 11
24.26260142946337
 21
12.727922061357891
 31
0.0
  0
LINE
  5
5AF14
  8
0
 62
     0
 10
24.36203832056772
 20
12.82735895246225
 30
0.0
 11
24.36203832056772
 21
12.82735895246225
 31
0.0
  0
LINE
  5
5AF15
  8
0
 62
     0
 10
24.461475211672081
 20
12.926795843566611
 30
0.0
 11
24.461475211672081
 21
12.926795843566611
 31
0.0
  0
LINE
  5
5AF16
  8
0
 62
     0
 10
24.560912102776431
 20
13.02623273467097
 30
0.0
 11
24.560912102776431
 21
13.02623273467097
 31
0.0
  0
LINE
  5
5AF17
  8
0
 62
     0
 10
24.660348993880788
 20
13.12566962577533
 30
0.0
 11
24.660348993880788
 21
13.12566962577533
 31
0.0
  0
LINE
  5
5AF18
  8
0
 62
     0
 10
24.759785884985149
 20
13.22510651687969
 30
0.0
 11
24.759785884985149
 21
13.22510651687969
 31
0.0
  0
LINE
  5
5AF19
  8
0
 62
     0
 10
24.85922277608951
 20
13.32454340798405
 30
0.0
 11
24.85922277608951
 21
13.32454340798405
 31
0.0
  0
LINE
  5
5AF1A
  8
0
 62
     0
 10
24.95865966719386
 20
13.423980299088409
 30
0.0
 11
24.95865966719386
 21
13.423980299088409
 31
0.0
  0
LINE
  5
5AF1B
  8
0
 62
     0
 10
25.058096558298221
 20
13.52341719019277
 30
0.0
 11
25.058096558298221
 21
13.52341719019277
 31
0.0
  0
LINE
  5
5AF1C
  8
0
 62
     0
 10
25.157533449402582
 20
13.622854081297129
 30
0.0
 11
25.157533449402582
 21
13.622854081297129
 31
0.0
  0
LINE
  5
5AF1D
  8
0
 62
     0
 10
25.256970340506939
 20
13.722290972401479
 30
0.0
 11
25.256970340506939
 21
13.722290972401479
 31
0.0
  0
LINE
  5
5AF1E
  8
0
 62
     0
 10
25.356407231611289
 20
13.82172786350584
 30
0.0
 11
25.356407231611289
 21
13.82172786350584
 31
0.0
  0
LINE
  5
5AF1F
  8
0
 62
     0
 10
19.539349102006391
 20
8.2035435161095567
 30
0.0
 11
19.539349102006391
 21
8.2035435161095567
 31
0.0
  0
LINE
  5
5AF20
  8
0
 62
     0
 10
19.638785993110751
 20
8.3029804072139157
 30
0.0
 11
19.638785993110751
 21
8.3029804072139157
 31
0.0
  0
LINE
  5
5AF21
  8
0
 62
     0
 10
19.738222884215109
 20
8.4024172983182748
 30
0.0
 11
19.738222884215109
 21
8.4024172983182748
 31
0.0
  0
LINE
  5
5AF22
  8
0
 62
     0
 10
19.837659775319459
 20
8.5018541894226338
 30
0.0
 11
19.837659775319459
 21
8.5018541894226338
 31
0.0
  0
LINE
  5
5AF23
  8
0
 62
     0
 10
19.93709666642382
 20
8.6012910805269929
 30
0.0
 11
19.93709666642382
 21
8.6012910805269929
 31
0.0
  0
LINE
  5
5AF24
  8
0
 62
     0
 10
20.03653355752818
 20
8.7007279716313501
 30
0.0
 11
20.03653355752818
 21
8.7007279716313501
 31
0.0
  0
LINE
  5
5AF25
  8
0
 62
     0
 10
20.135970448632541
 20
8.8001648627357092
 30
0.0
 11
20.135970448632541
 21
8.8001648627357092
 31
0.0
  0
LINE
  5
5AF26
  8
0
 62
     0
 10
20.235407339736891
 20
8.89960175384007
 30
0.0
 11
20.235407339736891
 21
8.89960175384007
 31
0.0
  0
LINE
  5
5AF27
  8
0
 62
     0
 10
20.334844230841249
 20
8.9990386449444291
 30
0.0
 11
20.334844230841249
 21
8.9990386449444291
 31
0.0
  0
LINE
  5
5AF28
  8
0
 62
     0
 10
20.43428112194561
 20
9.0984755360487881
 30
0.0
 11
20.43428112194561
 21
9.0984755360487881
 31
0.0
  0
LINE
  5
5AF29
  8
0
 62
     0
 10
20.53371801304997
 20
9.1979124271531472
 30
0.0
 11
20.53371801304997
 21
9.1979124271531472
 31
0.0
  0
LINE
  5
5AF2A
  8
0
 62
     0
 10
20.633154904154321
 20
9.2973493182575062
 30
0.0
 11
20.633154904154321
 21
9.2973493182575062
 31
0.0
  0
LINE
  5
5AF2B
  8
0
 62
     0
 10
20.732591795258681
 20
9.3967862093618653
 30
0.0
 11
20.732591795258681
 21
9.3967862093618653
 31
0.0
  0
LINE
  5
5AF2C
  8
0
 62
     0
 10
20.832028686363039
 20
9.4962231004662243
 30
0.0
 11
20.832028686363039
 21
9.4962231004662243
 31
0.0
  0
LINE
  5
5AF2D
  8
0
 62
     0
 10
20.931465577467399
 20
9.5956599915705834
 30
0.0
 11
20.931465577467399
 21
9.5956599915705834
 31
0.0
  0
LINE
  5
5AF2E
  8
0
 62
     0
 10
21.03090246857175
 20
9.6950968826749424
 30
0.0
 11
21.03090246857175
 21
9.6950968826749424
 31
0.0
  0
LINE
  5
5AF2F
  8
0
 62
     0
 10
21.13033935967611
 20
9.7945337737793015
 30
0.0
 11
21.13033935967611
 21
9.7945337737793015
 31
0.0
  0
LINE
  5
5AF30
  8
0
 62
     0
 10
21.229776250780471
 20
9.8939706648836605
 30
0.0
 11
21.229776250780471
 21
9.8939706648836605
 31
0.0
  0
LINE
  5
5AF31
  8
0
 62
     0
 10
21.329213141884821
 20
9.9934075559880196
 30
0.0
 11
21.329213141884821
 21
9.9934075559880196
 31
0.0
  0
LINE
  5
5AF32
  8
0
 62
     0
 10
21.428650032989179
 20
10.09284444709238
 30
0.0
 11
21.428650032989179
 21
10.09284444709238
 31
0.0
  0
LINE
  5
5AF33
  8
0
 62
     0
 10
21.52808692409354
 20
10.192281338196739
 30
0.0
 11
21.52808692409354
 21
10.192281338196739
 31
0.0
  0
LINE
  5
5AF34
  8
0
 62
     0
 10
21.6275238151979
 20
10.29171822930109
 30
0.0
 11
21.6275238151979
 21
10.29171822930109
 31
0.0
  0
LINE
  5
5AF35
  8
0
 62
     0
 10
21.726960706302251
 20
10.39115512040545
 30
0.0
 11
21.726960706302251
 21
10.39115512040545
 31
0.0
  0
LINE
  5
5AF36
  8
0
 62
     0
 10
21.826397597406611
 20
10.490592011509809
 30
0.0
 11
21.826397597406611
 21
10.490592011509809
 31
0.0
  0
LINE
  5
5AF37
  8
0
 62
     0
 10
21.925834488510969
 20
10.59002890261417
 30
0.0
 11
21.925834488510969
 21
10.59002890261417
 31
0.0
  0
LINE
  5
5AF38
  8
0
 62
     0
 10
22.025271379615329
 20
10.689465793718529
 30
0.0
 11
22.025271379615329
 21
10.689465793718529
 31
0.0
  0
LINE
  5
5AF39
  8
0
 62
     0
 10
22.12470827071968
 20
10.78890268482289
 30
0.0
 11
22.12470827071968
 21
10.78890268482289
 31
0.0
  0
LINE
  5
5AF3A
  8
0
 62
     0
 10
22.22414516182404
 20
10.888339575927249
 30
0.0
 11
22.22414516182404
 21
10.888339575927249
 31
0.0
  0
LINE
  5
5AF3B
  8
0
 62
     0
 10
22.323582052928401
 20
10.98777646703161
 30
0.0
 11
22.323582052928401
 21
10.98777646703161
 31
0.0
  0
LINE
  5
5AF3C
  8
0
 62
     0
 10
22.423018944032759
 20
11.087213358135971
 30
0.0
 11
22.423018944032759
 21
11.087213358135971
 31
0.0
  0
LINE
  5
5AF3D
  8
0
 62
     0
 10
22.522455835137109
 20
11.18665024924033
 30
0.0
 11
22.522455835137109
 21
11.18665024924033
 31
0.0
  0
LINE
  5
5AF3E
  8
0
 62
     0
 10
22.62189272624147
 20
11.28608714034468
 30
0.0
 11
22.62189272624147
 21
11.28608714034468
 31
0.0
  0
LINE
  5
5AF3F
  8
0
 62
     0
 10
22.72132961734583
 20
11.385524031449039
 30
0.0
 11
22.72132961734583
 21
11.385524031449039
 31
0.0
  0
LINE
  5
5AF40
  8
0
 62
     0
 10
22.820766508450181
 20
11.4849609225534
 30
0.0
 11
22.820766508450181
 21
11.4849609225534
 31
0.0
  0
LINE
  5
5AF41
  8
0
 62
     0
 10
22.920203399554541
 20
11.584397813657761
 30
0.0
 11
22.920203399554541
 21
11.584397813657761
 31
0.0
  0
LINE
  5
5AF42
  8
0
 62
     0
 10
23.019640290658899
 20
11.68383470476212
 30
0.0
 11
23.019640290658899
 21
11.68383470476212
 31
0.0
  0
LINE
  5
5AF43
  8
0
 62
     0
 10
23.119077181763259
 20
11.783271595866481
 30
0.0
 11
23.119077181763259
 21
11.783271595866481
 31
0.0
  0
LINE
  5
5AF44
  8
0
 62
     0
 10
23.21851407286761
 20
11.88270848697084
 30
0.0
 11
23.21851407286761
 21
11.88270848697084
 31
0.0
  0
LINE
  5
5AF45
  8
0
 62
     0
 10
23.31795096397197
 20
11.982145378075201
 30
0.0
 11
23.31795096397197
 21
11.982145378075201
 31
0.0
  0
LINE
  5
5AF46
  8
0
 62
     0
 10
23.417387855076331
 20
12.08158226917956
 30
0.0
 11
23.417387855076331
 21
12.08158226917956
 31
0.0
  0
LINE
  5
5AF47
  8
0
 62
     0
 10
23.516824746180689
 20
12.18101916028392
 30
0.0
 11
23.516824746180689
 21
12.18101916028392
 31
0.0
  0
LINE
  5
5AF48
  8
0
 62
     0
 10
23.616261637285039
 20
12.280456051388271
 30
0.0
 11
23.616261637285039
 21
12.280456051388271
 31
0.0
  0
LINE
  5
5AF49
  8
0
 62
     0
 10
23.7156985283894
 20
12.37989294249264
 30
0.0
 11
23.7156985283894
 21
12.37989294249264
 31
0.0
  0
LINE
  5
5AF4A
  8
0
 62
     0
 10
23.81513541949376
 20
12.47932983359699
 30
0.0
 11
23.81513541949376
 21
12.47932983359699
 31
0.0
  0
LINE
  5
5AF4B
  8
0
 62
     0
 10
23.914572310598121
 20
12.578766724701349
 30
0.0
 11
23.914572310598121
 21
12.578766724701349
 31
0.0
  0
LINE
  5
5AF4C
  8
0
 62
     0
 10
24.014009201702471
 20
12.67820361580571
 30
0.0
 11
24.014009201702471
 21
12.67820361580571
 31
0.0
  0
LINE
  5
5AF4D
  8
0
 62
     0
 10
24.113446092806829
 20
12.777640506910069
 30
0.0
 11
24.113446092806829
 21
12.777640506910069
 31
0.0
  0
LINE
  5
5AF4E
  8
0
 62
     0
 10
24.212882983911189
 20
12.87707739801443
 30
0.0
 11
24.212882983911189
 21
12.87707739801443
 31
0.0
  0
LINE
  5
5AF4F
  8
0
 62
     0
 10
24.31231987501555
 20
12.976514289118789
 30
0.0
 11
24.31231987501555
 21
12.976514289118789
 31
0.0
  0
LINE
  5
5AF50
  8
0
 62
     0
 10
24.4117567661199
 20
13.07595118022315
 30
0.0
 11
24.4117567661199
 21
13.07595118022315
 31
0.0
  0
LINE
  5
5AF51
  8
0
 62
     0
 10
24.511193657224261
 20
13.175388071327511
 30
0.0
 11
24.511193657224261
 21
13.175388071327511
 31
0.0
  0
LINE
  5
5AF52
  8
0
 62
     0
 10
24.610630548328619
 20
13.27482496243187
 30
0.0
 11
24.610630548328619
 21
13.27482496243187
 31
0.0
  0
LINE
  5
5AF53
  8
0
 62
     0
 10
24.710067439432969
 20
13.374261853536231
 30
0.0
 11
24.710067439432969
 21
13.374261853536231
 31
0.0
  0
LINE
  5
5AF54
  8
0
 62
     0
 10
24.80950433053733
 20
13.473698744640579
 30
0.0
 11
24.80950433053733
 21
13.473698744640579
 31
0.0
  0
LINE
  5
5AF55
  8
0
 62
     0
 10
24.90894122164169
 20
13.57313563574494
 30
0.0
 11
24.90894122164169
 21
13.57313563574494
 31
0.0
  0
LINE
  5
5AF56
  8
0
 62
     0
 10
25.008378112746051
 20
13.672572526849301
 30
0.0
 11
25.008378112746051
 21
13.672572526849301
 31
0.0
  0
LINE
  5
5AF57
  8
0
 62
     0
 10
25.107815003850401
 20
13.77200941795366
 30
0.0
 11
25.107815003850401
 21
13.77200941795366
 31
0.0
  0
LINE
  5
5AF58
  8
0
 62
     0
 10
25.207251894954759
 20
13.871446309058021
 30
0.0
 11
25.207251894954759
 21
13.871446309058021
 31
0.0
  0
LINE
  5
5AF59
  8
0
 62
     0
 10
25.306688786059119
 20
13.97088320016238
 30
0.0
 11
25.306688786059119
 21
13.97088320016238
 31
0.0
  0
LINE
  5
5AF5A
  8
0
 62
     0
 10
19.787941329767289
 20
8.6510095260791715
 30
0.0
 11
19.787941329767289
 21
8.6510095260791715
 31
0.0
  0
LINE
  5
5AF5B
  8
0
 62
     0
 10
19.88737822087165
 20
8.7504464171835306
 30
0.0
 11
19.88737822087165
 21
8.7504464171835306
 31
0.0
  0
LINE
  5
5AF5C
  8
0
 62
     0
 10
19.986815111976011
 20
8.8498833082878896
 30
0.0
 11
19.986815111976011
 21
8.8498833082878896
 31
0.0
  0
LINE
  5
5AF5D
  8
0
 62
     0
 10
20.086252003080372
 20
8.9493201993922487
 30
0.0
 11
20.086252003080372
 21
8.9493201993922487
 31
0.0
  0
LINE
  5
5AF5E
  8
0
 62
     0
 10
20.185688894184722
 20
9.0487570904966077
 30
0.0
 11
20.185688894184722
 21
9.0487570904966077
 31
0.0
  0
LINE
  5
5AF5F
  8
0
 62
     0
 10
20.285125785289079
 20
9.1481939816009668
 30
0.0
 11
20.285125785289079
 21
9.1481939816009668
 31
0.0
  0
LINE
  5
5AF60
  8
0
 62
     0
 10
20.38456267639344
 20
9.2476308727053258
 30
0.0
 11
20.38456267639344
 21
9.2476308727053258
 31
0.0
  0
LINE
  5
5AF61
  8
0
 62
     0
 10
20.48399956749779
 20
9.3470677638096848
 30
0.0
 11
20.48399956749779
 21
9.3470677638096848
 31
0.0
  0
LINE
  5
5AF62
  8
0
 62
     0
 10
20.583436458602151
 20
9.4465046549140421
 30
0.0
 11
20.583436458602151
 21
9.4465046549140421
 31
0.0
  0
LINE
  5
5AF63
  8
0
 62
     0
 10
20.682873349706512
 20
9.5459415460184012
 30
0.0
 11
20.682873349706512
 21
9.5459415460184012
 31
0.0
  0
LINE
  5
5AF64
  8
0
 62
     0
 10
20.782310240810869
 20
9.6453784371227602
 30
0.0
 11
20.782310240810869
 21
9.6453784371227602
 31
0.0
  0
LINE
  5
5AF65
  8
0
 62
     0
 10
20.881747131915219
 20
9.744815328227121
 30
0.0
 11
20.881747131915219
 21
9.744815328227121
 31
0.0
  0
LINE
  5
5AF66
  8
0
 62
     0
 10
20.98118402301958
 20
9.8442522193314801
 30
0.0
 11
20.98118402301958
 21
9.8442522193314801
 31
0.0
  0
LINE
  5
5AF67
  8
0
 62
     0
 10
21.080620914123941
 20
9.9436891104358391
 30
0.0
 11
21.080620914123941
 21
9.9436891104358391
 31
0.0
  0
LINE
  5
5AF68
  8
0
 62
     0
 10
21.180057805228302
 20
10.0431260015402
 30
0.0
 11
21.180057805228302
 21
10.0431260015402
 31
0.0
  0
LINE
  5
5AF69
  8
0
 62
     0
 10
21.279494696332652
 20
10.14256289264455
 30
0.0
 11
21.279494696332652
 21
10.14256289264455
 31
0.0
  0
LINE
  5
5AF6A
  8
0
 62
     0
 10
21.378931587437009
 20
10.241999783748909
 30
0.0
 11
21.378931587437009
 21
10.241999783748909
 31
0.0
  0
LINE
  5
5AF6B
  8
0
 62
     0
 10
21.478368478541359
 20
10.34143667485327
 30
0.0
 11
21.478368478541359
 21
10.34143667485327
 31
0.0
  0
LINE
  5
5AF6C
  8
0
 62
     0
 10
21.577805369645731
 20
10.440873565957631
 30
0.0
 11
21.577805369645731
 21
10.440873565957631
 31
0.0
  0
LINE
  5
5AF6D
  8
0
 62
     0
 10
21.677242260750081
 20
10.54031045706199
 30
0.0
 11
21.677242260750081
 21
10.54031045706199
 31
0.0
  0
LINE
  5
5AF6E
  8
0
 62
     0
 10
21.776679151854442
 20
10.639747348166351
 30
0.0
 11
21.776679151854442
 21
10.639747348166351
 31
0.0
  0
LINE
  5
5AF6F
  8
0
 62
     0
 10
21.876116042958792
 20
10.73918423927071
 30
0.0
 11
21.876116042958792
 21
10.73918423927071
 31
0.0
  0
LINE
  5
5AF70
  8
0
 62
     0
 10
21.975552934063149
 20
10.838621130375071
 30
0.0
 11
21.975552934063149
 21
10.838621130375071
 31
0.0
  0
LINE
  5
5AF71
  8
0
 62
     0
 10
22.07498982516751
 20
10.93805802147943
 30
0.0
 11
22.07498982516751
 21
10.93805802147943
 31
0.0
  0
LINE
  5
5AF72
  8
0
 62
     0
 10
22.174426716271871
 20
11.03749491258379
 30
0.0
 11
22.174426716271871
 21
11.03749491258379
 31
0.0
  0
LINE
  5
5AF73
  8
0
 62
     0
 10
22.273863607376221
 20
11.13693180368815
 30
0.0
 11
22.273863607376221
 21
11.13693180368815
 31
0.0
  0
LINE
  5
5AF74
  8
0
 62
     0
 10
22.373300498480582
 20
11.2363686947925
 30
0.0
 11
22.373300498480582
 21
11.2363686947925
 31
0.0
  0
LINE
  5
5AF75
  8
0
 62
     0
 10
22.472737389584939
 20
11.33580558589686
 30
0.0
 11
22.472737389584939
 21
11.33580558589686
 31
0.0
  0
LINE
  5
5AF76
  8
0
 62
     0
 10
22.5721742806893
 20
11.43524247700122
 30
0.0
 11
22.5721742806893
 21
11.43524247700122
 31
0.0
  0
LINE
  5
5AF77
  8
0
 62
     0
 10
22.67161117179365
 20
11.53467936810558
 30
0.0
 11
22.67161117179365
 21
11.53467936810558
 31
0.0
  0
LINE
  5
5AF78
  8
0
 62
     0
 10
22.771048062898011
 20
11.634116259209939
 30
0.0
 11
22.771048062898011
 21
11.634116259209939
 31
0.0
  0
LINE
  5
5AF79
  8
0
 62
     0
 10
22.870484954002372
 20
11.7335531503143
 30
0.0
 11
22.870484954002372
 21
11.7335531503143
 31
0.0
  0
LINE
  5
5AF7A
  8
0
 62
     0
 10
22.969921845106722
 20
11.832990041418659
 30
0.0
 11
22.969921845106722
 21
11.832990041418659
 31
0.0
  0
LINE
  5
5AF7B
  8
0
 62
     0
 10
23.069358736211079
 20
11.93242693252302
 30
0.0
 11
23.069358736211079
 21
11.93242693252302
 31
0.0
  0
LINE
  5
5AF7C
  8
0
 62
     0
 10
23.16879562731544
 20
12.031863823627379
 30
0.0
 11
23.16879562731544
 21
12.031863823627379
 31
0.0
  0
LINE
  5
5AF7D
  8
0
 62
     0
 10
23.268232518419801
 20
12.13130071473174
 30
0.0
 11
23.268232518419801
 21
12.13130071473174
 31
0.0
  0
LINE
  5
5AF7E
  8
0
 62
     0
 10
23.367669409524151
 20
12.23073760583609
 30
0.0
 11
23.367669409524151
 21
12.23073760583609
 31
0.0
  0
LINE
  5
5AF7F
  8
0
 62
     0
 10
23.467106300628512
 20
12.33017449694046
 30
0.0
 11
23.467106300628512
 21
12.33017449694046
 31
0.0
  0
LINE
  5
5AF80
  8
0
 62
     0
 10
23.566543191732869
 20
12.42961138804481
 30
0.0
 11
23.566543191732869
 21
12.42961138804481
 31
0.0
  0
LINE
  5
5AF81
  8
0
 62
     0
 10
23.66598008283723
 20
12.529048279149171
 30
0.0
 11
23.66598008283723
 21
12.529048279149171
 31
0.0
  0
LINE
  5
5AF82
  8
0
 62
     0
 10
23.76541697394158
 20
12.62848517025353
 30
0.0
 11
23.76541697394158
 21
12.62848517025353
 31
0.0
  0
LINE
  5
5AF83
  8
0
 62
     0
 10
23.864853865045941
 20
12.727922061357891
 30
0.0
 11
23.864853865045941
 21
12.727922061357891
 31
0.0
  0
LINE
  5
5AF84
  8
0
 62
     0
 10
23.964290756150302
 20
12.82735895246225
 30
0.0
 11
23.964290756150302
 21
12.82735895246225
 31
0.0
  0
LINE
  5
5AF85
  8
0
 62
     0
 10
24.063727647254659
 20
12.926795843566611
 30
0.0
 11
24.063727647254659
 21
12.926795843566611
 31
0.0
  0
LINE
  5
5AF86
  8
0
 62
     0
 10
24.163164538359009
 20
13.02623273467097
 30
0.0
 11
24.163164538359009
 21
13.02623273467097
 31
0.0
  0
LINE
  5
5AF87
  8
0
 62
     0
 10
24.26260142946337
 20
13.12566962577533
 30
0.0
 11
24.26260142946337
 21
13.12566962577533
 31
0.0
  0
LINE
  5
5AF88
  8
0
 62
     0
 10
24.362038320567731
 20
13.225106516879681
 30
0.0
 11
24.362038320567731
 21
13.225106516879681
 31
0.0
  0
LINE
  5
5AF89
  8
0
 62
     0
 10
24.461475211672091
 20
13.32454340798405
 30
0.0
 11
24.461475211672091
 21
13.32454340798405
 31
0.0
  0
LINE
  5
5AF8A
  8
0
 62
     0
 10
24.560912102776442
 20
13.423980299088401
 30
0.0
 11
24.560912102776442
 21
13.423980299088401
 31
0.0
  0
LINE
  5
5AF8B
  8
0
 62
     0
 10
24.660348993880799
 20
13.52341719019276
 30
0.0
 11
24.660348993880799
 21
13.52341719019276
 31
0.0
  0
LINE
  5
5AF8C
  8
0
 62
     0
 10
24.75978588498516
 20
13.62285408129712
 30
0.0
 11
24.75978588498516
 21
13.62285408129712
 31
0.0
  0
LINE
  5
5AF8D
  8
0
 62
     0
 10
24.85922277608951
 20
13.722290972401479
 30
0.0
 11
24.85922277608951
 21
13.722290972401479
 31
0.0
  0
LINE
  5
5AF8E
  8
0
 62
     0
 10
24.958659667193871
 20
13.82172786350584
 30
0.0
 11
24.958659667193871
 21
13.82172786350584
 31
0.0
  0
LINE
  5
5AF8F
  8
0
 62
     0
 10
25.058096558298232
 20
13.921164754610199
 30
0.0
 11
25.058096558298232
 21
13.921164754610199
 31
0.0
  0
LINE
  5
5AF90
  8
0
 62
     0
 10
25.157533449402589
 20
14.02060164571456
 30
0.0
 11
25.157533449402589
 21
14.02060164571456
 31
0.0
  0
LINE
  5
5AF91
  8
0
 62
     0
 10
20.036533557528191
 20
9.098475536048781
 30
0.0
 11
20.036533557528191
 21
9.098475536048781
 31
0.0
  0
LINE
  5
5AF92
  8
0
 62
     0
 10
20.135970448632548
 20
9.1979124271531401
 30
0.0
 11
20.135970448632548
 21
9.1979124271531401
 31
0.0
  0
LINE
  5
5AF93
  8
0
 62
     0
 10
20.235407339736899
 20
9.2973493182574991
 30
0.0
 11
20.235407339736899
 21
9.2973493182574991
 31
0.0
  0
LINE
  5
5AF94
  8
0
 62
     0
 10
20.334844230841259
 20
9.3967862093618582
 30
0.0
 11
20.334844230841259
 21
9.3967862093618582
 31
0.0
  0
LINE
  5
5AF95
  8
0
 62
     0
 10
20.43428112194562
 20
9.4962231004662172
 30
0.0
 11
20.43428112194562
 21
9.4962231004662172
 31
0.0
  0
LINE
  5
5AF96
  8
0
 62
     0
 10
20.53371801304997
 20
9.5956599915705763
 30
0.0
 11
20.53371801304997
 21
9.5956599915705763
 31
0.0
  0
LINE
  5
5AF97
  8
0
 62
     0
 10
20.633154904154331
 20
9.6950968826749353
 30
0.0
 11
20.633154904154331
 21
9.6950968826749353
 31
0.0
  0
LINE
  5
5AF98
  8
0
 62
     0
 10
20.732591795258688
 20
9.7945337737792943
 30
0.0
 11
20.732591795258688
 21
9.7945337737792943
 31
0.0
  0
LINE
  5
5AF99
  8
0
 62
     0
 10
20.832028686363049
 20
9.8939706648836534
 30
0.0
 11
20.832028686363049
 21
9.8939706648836534
 31
0.0
  0
LINE
  5
5AF9A
  8
0
 62
     0
 10
20.931465577467399
 20
9.9934075559880124
 30
0.0
 11
20.931465577467399
 21
9.9934075559880124
 31
0.0
  0
LINE
  5
5AF9B
  8
0
 62
     0
 10
21.03090246857176
 20
10.09284444709237
 30
0.0
 11
21.03090246857176
 21
10.09284444709237
 31
0.0
  0
LINE
  5
5AF9C
  8
0
 62
     0
 10
21.130339359676121
 20
10.192281338196731
 30
0.0
 11
21.130339359676121
 21
10.192281338196731
 31
0.0
  0
LINE
  5
5AF9D
  8
0
 62
     0
 10
21.229776250780478
 20
10.29171822930109
 30
0.0
 11
21.229776250780478
 21
10.29171822930109
 31
0.0
  0
LINE
  5
5AF9E
  8
0
 62
     0
 10
21.329213141884829
 20
10.39115512040545
 30
0.0
 11
21.329213141884829
 21
10.39115512040545
 31
0.0
  0
LINE
  5
5AF9F
  8
0
 62
     0
 10
21.428650032989189
 20
10.490592011509801
 30
0.0
 11
21.428650032989189
 21
10.490592011509801
 31
0.0
  0
LINE
  5
5AFA0
  8
0
 62
     0
 10
21.52808692409355
 20
10.59002890261417
 30
0.0
 11
21.52808692409355
 21
10.59002890261417
 31
0.0
  0
LINE
  5
5AFA1
  8
0
 62
     0
 10
21.627523815197911
 20
10.68946579371852
 30
0.0
 11
21.627523815197911
 21
10.68946579371852
 31
0.0
  0
LINE
  5
5AFA2
  8
0
 62
     0
 10
21.726960706302261
 20
10.78890268482288
 30
0.0
 11
21.726960706302261
 21
10.78890268482288
 31
0.0
  0
LINE
  5
5AFA3
  8
0
 62
     0
 10
21.826397597406618
 20
10.88833957592724
 30
0.0
 11
21.826397597406618
 21
10.88833957592724
 31
0.0
  0
LINE
  5
5AFA4
  8
0
 62
     0
 10
21.925834488510979
 20
10.987776467031599
 30
0.0
 11
21.925834488510979
 21
10.987776467031599
 31
0.0
  0
LINE
  5
5AFA5
  8
0
 62
     0
 10
22.025271379615329
 20
11.08721335813596
 30
0.0
 11
22.025271379615329
 21
11.08721335813596
 31
0.0
  0
LINE
  5
5AFA6
  8
0
 62
     0
 10
22.12470827071969
 20
11.186650249240319
 30
0.0
 11
22.12470827071969
 21
11.186650249240319
 31
0.0
  0
LINE
  5
5AFA7
  8
0
 62
     0
 10
22.224145161824051
 20
11.28608714034468
 30
0.0
 11
22.224145161824051
 21
11.28608714034468
 31
0.0
  0
LINE
  5
5AFA8
  8
0
 62
     0
 10
22.323582052928408
 20
11.385524031449039
 30
0.0
 11
22.323582052928408
 21
11.385524031449039
 31
0.0
  0
LINE
  5
5AFA9
  8
0
 62
     0
 10
22.423018944032759
 20
11.484960922553389
 30
0.0
 11
22.423018944032759
 21
11.484960922553389
 31
0.0
  0
LINE
  5
5AFAA
  8
0
 62
     0
 10
22.522455835137119
 20
11.584397813657761
 30
0.0
 11
22.522455835137119
 21
11.584397813657761
 31
0.0
  0
LINE
  5
5AFAB
  8
0
 62
     0
 10
22.62189272624148
 20
11.683834704762109
 30
0.0
 11
22.62189272624148
 21
11.683834704762109
 31
0.0
  0
LINE
  5
5AFAC
  8
0
 62
     0
 10
22.721329617345841
 20
11.78327159586647
 30
0.0
 11
22.721329617345841
 21
11.78327159586647
 31
0.0
  0
LINE
  5
5AFAD
  8
0
 62
     0
 10
22.820766508450191
 20
11.882708486970831
 30
0.0
 11
22.820766508450191
 21
11.882708486970831
 31
0.0
  0
LINE
  5
5AFAE
  8
0
 62
     0
 10
22.920203399554548
 20
11.98214537807519
 30
0.0
 11
22.920203399554548
 21
11.98214537807519
 31
0.0
  0
LINE
  5
5AFAF
  8
0
 62
     0
 10
23.019640290658899
 20
12.081582269179551
 30
0.0
 11
23.019640290658899
 21
12.081582269179551
 31
0.0
  0
LINE
  5
5AFB0
  8
0
 62
     0
 10
23.11907718176327
 20
12.18101916028391
 30
0.0
 11
23.11907718176327
 21
12.18101916028391
 31
0.0
  0
LINE
  5
5AFB1
  8
0
 62
     0
 10
23.21851407286762
 20
12.280456051388271
 30
0.0
 11
23.21851407286762
 21
12.280456051388271
 31
0.0
  0
LINE
  5
5AFB2
  8
0
 62
     0
 10
23.317950963971981
 20
12.37989294249263
 30
0.0
 11
23.317950963971981
 21
12.37989294249263
 31
0.0
  0
LINE
  5
5AFB3
  8
0
 62
     0
 10
23.417387855076331
 20
12.47932983359699
 30
0.0
 11
23.417387855076331
 21
12.47932983359699
 31
0.0
  0
LINE
  5
5AFB4
  8
0
 62
     0
 10
23.516824746180689
 20
12.578766724701349
 30
0.0
 11
23.516824746180689
 21
12.578766724701349
 31
0.0
  0
LINE
  5
5AFB5
  8
0
 62
     0
 10
23.616261637285049
 20
12.6782036158057
 30
0.0
 11
23.616261637285049
 21
12.6782036158057
 31
0.0
  0
LINE
  5
5AFB6
  8
0
 62
     0
 10
23.71569852838941
 20
12.77764050691006
 30
0.0
 11
23.71569852838941
 21
12.77764050691006
 31
0.0
  0
LINE
  5
5AFB7
  8
0
 62
     0
 10
23.81513541949376
 20
12.87707739801442
 30
0.0
 11
23.81513541949376
 21
12.87707739801442
 31
0.0
  0
LINE
  5
5AFB8
  8
0
 62
     0
 10
23.914572310598121
 20
12.97651428911878
 30
0.0
 11
23.914572310598121
 21
12.97651428911878
 31
0.0
  0
LINE
  5
5AFB9
  8
0
 62
     0
 10
24.014009201702478
 20
13.075951180223139
 30
0.0
 11
24.014009201702478
 21
13.075951180223139
 31
0.0
  0
LINE
  5
5AFBA
  8
0
 62
     0
 10
24.113446092806839
 20
13.1753880713275
 30
0.0
 11
24.113446092806839
 21
13.1753880713275
 31
0.0
  0
LINE
  5
5AFBB
  8
0
 62
     0
 10
24.212882983911189
 20
13.274824962431859
 30
0.0
 11
24.212882983911189
 21
13.274824962431859
 31
0.0
  0
LINE
  5
5AFBC
  8
0
 62
     0
 10
24.31231987501555
 20
13.37426185353622
 30
0.0
 11
24.31231987501555
 21
13.37426185353622
 31
0.0
  0
LINE
  5
5AFBD
  8
0
 62
     0
 10
24.411756766119911
 20
13.473698744640579
 30
0.0
 11
24.411756766119911
 21
13.473698744640579
 31
0.0
  0
LINE
  5
5AFBE
  8
0
 62
     0
 10
24.511193657224268
 20
13.57313563574494
 30
0.0
 11
24.511193657224268
 21
13.57313563574494
 31
0.0
  0
LINE
  5
5AFBF
  8
0
 62
     0
 10
24.610630548328619
 20
13.672572526849301
 30
0.0
 11
24.610630548328619
 21
13.672572526849301
 31
0.0
  0
LINE
  5
5AFC0
  8
0
 62
     0
 10
24.710067439432979
 20
13.772009417953649
 30
0.0
 11
24.710067439432979
 21
13.772009417953649
 31
0.0
  0
LINE
  5
5AFC1
  8
0
 62
     0
 10
24.80950433053734
 20
13.87144630905801
 30
0.0
 11
24.80950433053734
 21
13.87144630905801
 31
0.0
  0
LINE
  5
5AFC2
  8
0
 62
     0
 10
24.90894122164169
 20
13.970883200162371
 30
0.0
 11
24.90894122164169
 21
13.970883200162371
 31
0.0
  0
LINE
  5
5AFC3
  8
0
 62
     0
 10
25.008378112746051
 20
14.07032009126673
 30
0.0
 11
25.008378112746051
 21
14.07032009126673
 31
0.0
  0
LINE
  5
5AFC4
  8
0
 62
     0
 10
20.285125785289079
 20
9.5459415460183958
 30
0.0
 11
20.285125785289079
 21
9.5459415460183958
 31
0.0
  0
LINE
  5
5AFC5
  8
0
 62
     0
 10
20.38456267639344
 20
9.6453784371227531
 30
0.0
 11
20.38456267639344
 21
9.6453784371227531
 31
0.0
  0
LINE
  5
5AFC6
  8
0
 62
     0
 10
20.483999567497801
 20
9.7448153282271122
 30
0.0
 11
20.483999567497801
 21
9.7448153282271122
 31
0.0
  0
LINE
  5
5AFC7
  8
0
 62
     0
 10
20.583436458602151
 20
9.8442522193314712
 30
0.0
 11
20.583436458602151
 21
9.8442522193314712
 31
0.0
  0
LINE
  5
5AFC8
  8
0
 62
     0
 10
20.682873349706512
 20
9.943689110435832
 30
0.0
 11
20.682873349706512
 21
9.943689110435832
 31
0.0
  0
LINE
  5
5AFC9
  8
0
 62
     0
 10
20.782310240810869
 20
10.043126001540189
 30
0.0
 11
20.782310240810869
 21
10.043126001540189
 31
0.0
  0
LINE
  5
5AFCA
  8
0
 62
     0
 10
20.88174713191523
 20
10.14256289264455
 30
0.0
 11
20.88174713191523
 21
10.14256289264455
 31
0.0
  0
LINE
  5
5AFCB
  8
0
 62
     0
 10
20.98118402301958
 20
10.241999783748909
 30
0.0
 11
20.98118402301958
 21
10.241999783748909
 31
0.0
  0
LINE
  5
5AFCC
  8
0
 62
     0
 10
21.080620914123941
 20
10.34143667485327
 30
0.0
 11
21.080620914123941
 21
10.34143667485327
 31
0.0
  0
LINE
  5
5AFCD
  8
0
 62
     0
 10
21.180057805228302
 20
10.44087356595762
 30
0.0
 11
21.180057805228302
 21
10.44087356595762
 31
0.0
  0
LINE
  5
5AFCE
  8
0
 62
     0
 10
21.279494696332659
 20
10.540310457061979
 30
0.0
 11
21.279494696332659
 21
10.540310457061979
 31
0.0
  0
LINE
  5
5AFCF
  8
0
 62
     0
 10
21.378931587437009
 20
10.63974734816634
 30
0.0
 11
21.378931587437009
 21
10.63974734816634
 31
0.0
  0
LINE
  5
5AFD0
  8
0
 62
     0
 10
21.47836847854137
 20
10.739184239270701
 30
0.0
 11
21.47836847854137
 21
10.739184239270701
 31
0.0
  0
LINE
  5
5AFD1
  8
0
 62
     0
 10
21.577805369645731
 20
10.83862113037506
 30
0.0
 11
21.577805369645731
 21
10.83862113037506
 31
0.0
  0
LINE
  5
5AFD2
  8
0
 62
     0
 10
21.677242260750091
 20
10.938058021479421
 30
0.0
 11
21.677242260750091
 21
10.938058021479421
 31
0.0
  0
LINE
  5
5AFD3
  8
0
 62
     0
 10
21.776679151854442
 20
11.03749491258378
 30
0.0
 11
21.776679151854442
 21
11.03749491258378
 31
0.0
  0
LINE
  5
5AFD4
  8
0
 62
     0
 10
21.876116042958799
 20
11.136931803688141
 30
0.0
 11
21.876116042958799
 21
11.136931803688141
 31
0.0
  0
LINE
  5
5AFD5
  8
0
 62
     0
 10
21.97555293406316
 20
11.2363686947925
 30
0.0
 11
21.97555293406316
 21
11.2363686947925
 31
0.0
  0
LINE
  5
5AFD6
  8
0
 62
     0
 10
22.07498982516751
 20
11.33580558589686
 30
0.0
 11
22.07498982516751
 21
11.33580558589686
 31
0.0
  0
LINE
  5
5AFD7
  8
0
 62
     0
 10
22.174426716271871
 20
11.435242477001211
 30
0.0
 11
22.174426716271871
 21
11.435242477001211
 31
0.0
  0
LINE
  5
5AFD8
  8
0
 62
     0
 10
22.273863607376231
 20
11.53467936810558
 30
0.0
 11
22.273863607376231
 21
11.53467936810558
 31
0.0
  0
LINE
  5
5AFD9
  8
0
 62
     0
 10
22.373300498480589
 20
11.634116259209931
 30
0.0
 11
22.373300498480589
 21
11.634116259209931
 31
0.0
  0
LINE
  5
5AFDA
  8
0
 62
     0
 10
22.472737389584939
 20
11.73355315031429
 30
0.0
 11
22.472737389584939
 21
11.73355315031429
 31
0.0
  0
LINE
  5
5AFDB
  8
0
 62
     0
 10
22.5721742806893
 20
11.83299004141865
 30
0.0
 11
22.5721742806893
 21
11.83299004141865
 31
0.0
  0
LINE
  5
5AFDC
  8
0
 62
     0
 10
22.671611171793661
 20
11.932426932523009
 30
0.0
 11
22.671611171793661
 21
11.932426932523009
 31
0.0
  0
LINE
  5
5AFDD
  8
0
 62
     0
 10
22.771048062898021
 20
12.03186382362737
 30
0.0
 11
22.771048062898021
 21
12.03186382362737
 31
0.0
  0
LINE
  5
5AFDE
  8
0
 62
     0
 10
22.870484954002372
 20
12.131300714731729
 30
0.0
 11
22.870484954002372
 21
12.131300714731729
 31
0.0
  0
LINE
  5
5AFDF
  8
0
 62
     0
 10
22.969921845106729
 20
12.23073760583609
 30
0.0
 11
22.969921845106729
 21
12.23073760583609
 31
0.0
  0
LINE
  5
5AFE0
  8
0
 62
     0
 10
23.069358736211079
 20
12.330174496940449
 30
0.0
 11
23.069358736211079
 21
12.330174496940449
 31
0.0
  0
LINE
  5
5AFE1
  8
0
 62
     0
 10
23.168795627315451
 20
12.42961138804481
 30
0.0
 11
23.168795627315451
 21
12.42961138804481
 31
0.0
  0
LINE
  5
5AFE2
  8
0
 62
     0
 10
23.268232518419801
 20
12.529048279149171
 30
0.0
 11
23.268232518419801
 21
12.529048279149171
 31
0.0
  0
LINE
  5
5AFE3
  8
0
 62
     0
 10
23.367669409524161
 20
12.628485170253519
 30
0.0
 11
23.367669409524161
 21
12.628485170253519
 31
0.0
  0
LINE
  5
5AFE4
  8
0
 62
     0
 10
23.467106300628512
 20
12.72792206135788
 30
0.0
 11
23.467106300628512
 21
12.72792206135788
 31
0.0
  0
LINE
  5
5AFE5
  8
0
 62
     0
 10
23.566543191732869
 20
12.827358952462239
 30
0.0
 11
23.566543191732869
 21
12.827358952462239
 31
0.0
  0
LINE
  5
5AFE6
  8
0
 62
     0
 10
23.66598008283723
 20
12.9267958435666
 30
0.0
 11
23.66598008283723
 21
12.9267958435666
 31
0.0
  0
LINE
  5
5AFE7
  8
0
 62
     0
 10
23.765416973941591
 20
13.026232734670961
 30
0.0
 11
23.765416973941591
 21
13.026232734670961
 31
0.0
  0
LINE
  5
5AFE8
  8
0
 62
     0
 10
23.864853865045941
 20
13.12566962577532
 30
0.0
 11
23.864853865045941
 21
13.12566962577532
 31
0.0
  0
LINE
  5
5AFE9
  8
0
 62
     0
 10
23.964290756150302
 20
13.225106516879681
 30
0.0
 11
23.964290756150302
 21
13.225106516879681
 31
0.0
  0
LINE
  5
5AFEA
  8
0
 62
     0
 10
24.063727647254659
 20
13.32454340798404
 30
0.0
 11
24.063727647254659
 21
13.32454340798404
 31
0.0
  0
LINE
  5
5AFEB
  8
0
 62
     0
 10
24.16316453835902
 20
13.423980299088401
 30
0.0
 11
24.16316453835902
 21
13.423980299088401
 31
0.0
  0
LINE
  5
5AFEC
  8
0
 62
     0
 10
24.26260142946337
 20
13.52341719019276
 30
0.0
 11
24.26260142946337
 21
13.52341719019276
 31
0.0
  0
LINE
  5
5AFED
  8
0
 62
     0
 10
24.362038320567731
 20
13.62285408129711
 30
0.0
 11
24.362038320567731
 21
13.62285408129711
 31
0.0
  0
LINE
  5
5AFEE
  8
0
 62
     0
 10
24.461475211672091
 20
13.722290972401471
 30
0.0
 11
24.461475211672091
 21
13.722290972401471
 31
0.0
  0
LINE
  5
5AFEF
  8
0
 62
     0
 10
24.560912102776449
 20
13.82172786350583
 30
0.0
 11
24.560912102776449
 21
13.82172786350583
 31
0.0
  0
LINE
  5
5AFF0
  8
0
 62
     0
 10
24.660348993880799
 20
13.92116475461019
 30
0.0
 11
24.660348993880799
 21
13.92116475461019
 31
0.0
  0
LINE
  5
5AFF1
  8
0
 62
     0
 10
24.75978588498516
 20
14.020601645714549
 30
0.0
 11
24.75978588498516
 21
14.020601645714549
 31
0.0
  0
LINE
  5
5AFF2
  8
0
 62
     0
 10
24.859222776089521
 20
14.12003853681891
 30
0.0
 11
24.859222776089521
 21
14.12003853681891
 31
0.0
  0
LINE
  5
5AFF3
  8
0
 62
     0
 10
20.633154904154338
 20
10.092844447092361
 30
0.0
 11
20.633154904154338
 21
10.092844447092361
 31
0.0
  0
LINE
  5
5AFF4
  8
0
 62
     0
 10
20.732591795258688
 20
10.19228133819672
 30
0.0
 11
20.732591795258688
 21
10.19228133819672
 31
0.0
  0
LINE
  5
5AFF5
  8
0
 62
     0
 10
20.832028686363049
 20
10.291718229301081
 30
0.0
 11
20.832028686363049
 21
10.291718229301081
 31
0.0
  0
LINE
  5
5AFF6
  8
0
 62
     0
 10
20.93146557746741
 20
10.39115512040544
 30
0.0
 11
20.93146557746741
 21
10.39115512040544
 31
0.0
  0
LINE
  5
5AFF7
  8
0
 62
     0
 10
21.030902468571771
 20
10.490592011509801
 30
0.0
 11
21.030902468571771
 21
10.490592011509801
 31
0.0
  0
LINE
  5
5AFF8
  8
0
 62
     0
 10
21.130339359676121
 20
10.59002890261416
 30
0.0
 11
21.130339359676121
 21
10.59002890261416
 31
0.0
  0
LINE
  5
5AFF9
  8
0
 62
     0
 10
21.229776250780478
 20
10.68946579371852
 30
0.0
 11
21.229776250780478
 21
10.68946579371852
 31
0.0
  0
LINE
  5
5AFFA
  8
0
 62
     0
 10
21.329213141884839
 20
10.78890268482288
 30
0.0
 11
21.329213141884839
 21
10.78890268482288
 31
0.0
  0
LINE
  5
5AFFB
  8
0
 62
     0
 10
21.4286500329892
 20
10.88833957592724
 30
0.0
 11
21.4286500329892
 21
10.88833957592724
 31
0.0
  0
LINE
  5
5AFFC
  8
0
 62
     0
 10
21.52808692409355
 20
10.987776467031599
 30
0.0
 11
21.52808692409355
 21
10.987776467031599
 31
0.0
  0
LINE
  5
5AFFD
  8
0
 62
     0
 10
21.627523815197911
 20
11.08721335813595
 30
0.0
 11
21.627523815197911
 21
11.08721335813595
 31
0.0
  0
LINE
  5
5AFFE
  8
0
 62
     0
 10
21.726960706302268
 20
11.18665024924031
 30
0.0
 11
21.726960706302268
 21
11.18665024924031
 31
0.0
  0
LINE
  5
5AFFF
  8
0
 62
     0
 10
21.826397597406629
 20
11.286087140344669
 30
0.0
 11
21.826397597406629
 21
11.286087140344669
 31
0.0
  0
LINE
  5
5B000
  8
0
 62
     0
 10
21.925834488510979
 20
11.38552403144903
 30
0.0
 11
21.925834488510979
 21
11.38552403144903
 31
0.0
  0
LINE
  5
5B001
  8
0
 62
     0
 10
22.02527137961534
 20
11.484960922553389
 30
0.0
 11
22.02527137961534
 21
11.484960922553389
 31
0.0
  0
LINE
  5
5B002
  8
0
 62
     0
 10
22.124708270719701
 20
11.58439781365775
 30
0.0
 11
22.124708270719701
 21
11.58439781365775
 31
0.0
  0
LINE
  5
5B003
  8
0
 62
     0
 10
22.224145161824051
 20
11.683834704762109
 30
0.0
 11
22.224145161824051
 21
11.683834704762109
 31
0.0
  0
LINE
  5
5B004
  8
0
 62
     0
 10
22.323582052928408
 20
11.78327159586647
 30
0.0
 11
22.323582052928408
 21
11.78327159586647
 31
0.0
  0
LINE
  5
5B005
  8
0
 62
     0
 10
22.423018944032769
 20
11.882708486970831
 30
0.0
 11
22.423018944032769
 21
11.882708486970831
 31
0.0
  0
LINE
  5
5B006
  8
0
 62
     0
 10
22.52245583513713
 20
11.98214537807519
 30
0.0
 11
22.52245583513713
 21
11.98214537807519
 31
0.0
  0
LINE
  5
5B007
  8
0
 62
     0
 10
22.62189272624148
 20
12.08158226917954
 30
0.0
 11
22.62189272624148
 21
12.08158226917954
 31
0.0
  0
LINE
  5
5B008
  8
0
 62
     0
 10
22.721329617345841
 20
12.18101916028391
 30
0.0
 11
22.721329617345841
 21
12.18101916028391
 31
0.0
  0
LINE
  5
5B009
  8
0
 62
     0
 10
22.820766508450198
 20
12.28045605138826
 30
0.0
 11
22.820766508450198
 21
12.28045605138826
 31
0.0
  0
LINE
  5
5B00A
  8
0
 62
     0
 10
22.920203399554559
 20
12.379892942492621
 30
0.0
 11
22.920203399554559
 21
12.379892942492621
 31
0.0
  0
LINE
  5
5B00B
  8
0
 62
     0
 10
23.019640290658909
 20
12.47932983359698
 30
0.0
 11
23.019640290658909
 21
12.47932983359698
 31
0.0
  0
LINE
  5
5B00C
  8
0
 62
     0
 10
23.11907718176327
 20
12.578766724701341
 30
0.0
 11
23.11907718176327
 21
12.578766724701341
 31
0.0
  0
LINE
  5
5B00D
  8
0
 62
     0
 10
23.218514072867631
 20
12.6782036158057
 30
0.0
 11
23.218514072867631
 21
12.6782036158057
 31
0.0
  0
LINE
  5
5B00E
  8
0
 62
     0
 10
23.317950963971992
 20
12.77764050691006
 30
0.0
 11
23.317950963971992
 21
12.77764050691006
 31
0.0
  0
LINE
  5
5B00F
  8
0
 62
     0
 10
23.417387855076338
 20
12.87707739801442
 30
0.0
 11
23.417387855076338
 21
12.87707739801442
 31
0.0
  0
LINE
  5
5B010
  8
0
 62
     0
 10
23.516824746180699
 20
12.97651428911878
 30
0.0
 11
23.516824746180699
 21
12.97651428911878
 31
0.0
  0
LINE
  5
5B011
  8
0
 62
     0
 10
23.61626163728506
 20
13.075951180223131
 30
0.0
 11
23.61626163728506
 21
13.075951180223131
 31
0.0
  0
LINE
  5
5B012
  8
0
 62
     0
 10
23.71569852838941
 20
13.1753880713275
 30
0.0
 11
23.71569852838941
 21
13.1753880713275
 31
0.0
  0
LINE
  5
5B013
  8
0
 62
     0
 10
23.815135419493771
 20
13.27482496243185
 30
0.0
 11
23.815135419493771
 21
13.27482496243185
 31
0.0
  0
LINE
  5
5B014
  8
0
 62
     0
 10
23.914572310598128
 20
13.374261853536209
 30
0.0
 11
23.914572310598128
 21
13.374261853536209
 31
0.0
  0
LINE
  5
5B015
  8
0
 62
     0
 10
24.014009201702489
 20
13.47369874464057
 30
0.0
 11
24.014009201702489
 21
13.47369874464057
 31
0.0
  0
LINE
  5
5B016
  8
0
 62
     0
 10
24.113446092806839
 20
13.573135635744929
 30
0.0
 11
24.113446092806839
 21
13.573135635744929
 31
0.0
  0
LINE
  5
5B017
  8
0
 62
     0
 10
24.2128829839112
 20
13.67257252684929
 30
0.0
 11
24.2128829839112
 21
13.67257252684929
 31
0.0
  0
LINE
  5
5B018
  8
0
 62
     0
 10
24.312319875015561
 20
13.772009417953649
 30
0.0
 11
24.312319875015561
 21
13.772009417953649
 31
0.0
  0
LINE
  5
5B019
  8
0
 62
     0
 10
24.411756766119922
 20
13.87144630905801
 30
0.0
 11
24.411756766119922
 21
13.87144630905801
 31
0.0
  0
LINE
  5
5B01A
  8
0
 62
     0
 10
24.511193657224268
 20
13.970883200162371
 30
0.0
 11
24.511193657224268
 21
13.970883200162371
 31
0.0
  0
LINE
  5
5B01B
  8
0
 62
     0
 10
24.610630548328629
 20
14.070320091266719
 30
0.0
 11
24.610630548328629
 21
14.070320091266719
 31
0.0
  0
LINE
  5
5B01C
  8
0
 62
     0
 10
24.71006743943299
 20
14.169756982371091
 30
0.0
 11
24.71006743943299
 21
14.169756982371091
 31
0.0
  0
LINE
  5
5B01D
  8
0
 62
     0
 10
24.809504330537351
 20
14.269193873475441
 30
0.0
 11
24.809504330537351
 21
14.269193873475441
 31
0.0
  0
LINE
  5
5B01E
  8
0
 62
     0
 10
20.88174713191524
 20
10.54031045706197
 30
0.0
 11
20.88174713191524
 21
10.54031045706197
 31
0.0
  0
LINE
  5
5B01F
  8
0
 62
     0
 10
20.981184023019591
 20
10.639747348166329
 30
0.0
 11
20.981184023019591
 21
10.639747348166329
 31
0.0
  0
LINE
  5
5B020
  8
0
 62
     0
 10
21.080620914123951
 20
10.73918423927069
 30
0.0
 11
21.080620914123951
 21
10.73918423927069
 31
0.0
  0
LINE
  5
5B021
  8
0
 62
     0
 10
21.180057805228302
 20
10.838621130375049
 30
0.0
 11
21.180057805228302
 21
10.838621130375049
 31
0.0
  0
LINE
  5
5B022
  8
0
 62
     0
 10
21.279494696332659
 20
10.93805802147941
 30
0.0
 11
21.279494696332659
 21
10.93805802147941
 31
0.0
  0
LINE
  5
5B023
  8
0
 62
     0
 10
21.37893158743702
 20
11.037494912583769
 30
0.0
 11
21.37893158743702
 21
11.037494912583769
 31
0.0
  0
LINE
  5
5B024
  8
0
 62
     0
 10
21.47836847854138
 20
11.13693180368813
 30
0.0
 11
21.47836847854138
 21
11.13693180368813
 31
0.0
  0
LINE
  5
5B025
  8
0
 62
     0
 10
21.577805369645731
 20
11.236368694792491
 30
0.0
 11
21.577805369645731
 21
11.236368694792491
 31
0.0
  0
LINE
  5
5B026
  8
0
 62
     0
 10
21.677242260750091
 20
11.335805585896839
 30
0.0
 11
21.677242260750091
 21
11.335805585896839
 31
0.0
  0
LINE
  5
5B027
  8
0
 62
     0
 10
21.776679151854449
 20
11.435242477001211
 30
0.0
 11
21.776679151854449
 21
11.435242477001211
 31
0.0
  0
LINE
  5
5B028
  8
0
 62
     0
 10
21.87611604295881
 20
11.534679368105561
 30
0.0
 11
21.87611604295881
 21
11.534679368105561
 31
0.0
  0
LINE
  5
5B029
  8
0
 62
     0
 10
21.97555293406316
 20
11.63411625920992
 30
0.0
 11
21.97555293406316
 21
11.63411625920992
 31
0.0
  0
LINE
  5
5B02A
  8
0
 62
     0
 10
22.074989825167521
 20
11.733553150314281
 30
0.0
 11
22.074989825167521
 21
11.733553150314281
 31
0.0
  0
LINE
  5
5B02B
  8
0
 62
     0
 10
22.174426716271881
 20
11.83299004141864
 30
0.0
 11
22.174426716271881
 21
11.83299004141864
 31
0.0
  0
LINE
  5
5B02C
  8
0
 62
     0
 10
22.273863607376231
 20
11.932426932523001
 30
0.0
 11
22.273863607376231
 21
11.932426932523001
 31
0.0
  0
LINE
  5
5B02D
  8
0
 62
     0
 10
22.373300498480589
 20
12.03186382362736
 30
0.0
 11
22.373300498480589
 21
12.03186382362736
 31
0.0
  0
LINE
  5
5B02E
  8
0
 62
     0
 10
22.47273738958495
 20
12.13130071473172
 30
0.0
 11
22.47273738958495
 21
12.13130071473172
 31
0.0
  0
LINE
  5
5B02F
  8
0
 62
     0
 10
22.57217428068931
 20
12.230737605836079
 30
0.0
 11
22.57217428068931
 21
12.230737605836079
 31
0.0
  0
LINE
  5
5B030
  8
0
 62
     0
 10
22.671611171793661
 20
12.33017449694044
 30
0.0
 11
22.671611171793661
 21
12.33017449694044
 31
0.0
  0
LINE
  5
5B031
  8
0
 62
     0
 10
22.771048062898021
 20
12.429611388044799
 30
0.0
 11
22.771048062898021
 21
12.429611388044799
 31
0.0
  0
LINE
  5
5B032
  8
0
 62
     0
 10
22.870484954002379
 20
12.52904827914915
 30
0.0
 11
22.870484954002379
 21
12.52904827914915
 31
0.0
  0
LINE
  5
5B033
  8
0
 62
     0
 10
22.96992184510674
 20
12.62848517025351
 30
0.0
 11
22.96992184510674
 21
12.62848517025351
 31
0.0
  0
LINE
  5
5B034
  8
0
 62
     0
 10
23.06935873621109
 20
12.727922061357869
 30
0.0
 11
23.06935873621109
 21
12.727922061357869
 31
0.0
  0
LINE
  5
5B035
  8
0
 62
     0
 10
23.168795627315451
 20
12.82735895246223
 30
0.0
 11
23.168795627315451
 21
12.82735895246223
 31
0.0
  0
LINE
  5
5B036
  8
0
 62
     0
 10
23.268232518419811
 20
12.926795843566589
 30
0.0
 11
23.268232518419811
 21
12.926795843566589
 31
0.0
  0
LINE
  5
5B037
  8
0
 62
     0
 10
23.367669409524169
 20
13.02623273467095
 30
0.0
 11
23.367669409524169
 21
13.02623273467095
 31
0.0
  0
LINE
  5
5B038
  8
0
 62
     0
 10
23.467106300628519
 20
13.125669625775309
 30
0.0
 11
23.467106300628519
 21
13.125669625775309
 31
0.0
  0
LINE
  5
5B039
  8
0
 62
     0
 10
23.56654319173288
 20
13.22510651687967
 30
0.0
 11
23.56654319173288
 21
13.22510651687967
 31
0.0
  0
LINE
  5
5B03A
  8
0
 62
     0
 10
23.66598008283724
 20
13.324543407984031
 30
0.0
 11
23.66598008283724
 21
13.324543407984031
 31
0.0
  0
LINE
  5
5B03B
  8
0
 62
     0
 10
23.765416973941591
 20
13.42398029908839
 30
0.0
 11
23.765416973941591
 21
13.42398029908839
 31
0.0
  0
LINE
  5
5B03C
  8
0
 62
     0
 10
23.864853865045951
 20
13.523417190192751
 30
0.0
 11
23.864853865045951
 21
13.523417190192751
 31
0.0
  0
LINE
  5
5B03D
  8
0
 62
     0
 10
23.964290756150309
 20
13.622854081297101
 30
0.0
 11
23.964290756150309
 21
13.622854081297101
 31
0.0
  0
LINE
  5
5B03E
  8
0
 62
     0
 10
24.06372764725467
 20
13.72229097240146
 30
0.0
 11
24.06372764725467
 21
13.72229097240146
 31
0.0
  0
LINE
  5
5B03F
  8
0
 62
     0
 10
24.16316453835902
 20
13.821727863505821
 30
0.0
 11
24.16316453835902
 21
13.821727863505821
 31
0.0
  0
LINE
  5
5B040
  8
0
 62
     0
 10
24.26260142946338
 20
13.92116475461018
 30
0.0
 11
24.26260142946338
 21
13.92116475461018
 31
0.0
  0
LINE
  5
5B041
  8
0
 62
     0
 10
24.362038320567741
 20
14.020601645714541
 30
0.0
 11
24.362038320567741
 21
14.020601645714541
 31
0.0
  0
LINE
  5
5B042
  8
0
 62
     0
 10
24.461475211672099
 20
14.1200385368189
 30
0.0
 11
24.461475211672099
 21
14.1200385368189
 31
0.0
  0
LINE
  5
5B043
  8
0
 62
     0
 10
24.560912102776449
 20
14.21947542792326
 30
0.0
 11
24.560912102776449
 21
14.21947542792326
 31
0.0
  0
LINE
  5
5B044
  8
0
 62
     0
 10
24.66034899388081
 20
14.31891231902762
 30
0.0
 11
24.66034899388081
 21
14.31891231902762
 31
0.0
  0
LINE
  5
5B045
  8
0
 62
     0
 10
21.130339359676132
 20
10.98777646703159
 30
0.0
 11
21.130339359676132
 21
10.98777646703159
 31
0.0
  0
LINE
  5
5B046
  8
0
 62
     0
 10
21.229776250780478
 20
11.08721335813595
 30
0.0
 11
21.229776250780478
 21
11.08721335813595
 31
0.0
  0
LINE
  5
5B047
  8
0
 62
     0
 10
21.329213141884839
 20
11.18665024924031
 30
0.0
 11
21.329213141884839
 21
11.18665024924031
 31
0.0
  0
LINE
  5
5B048
  8
0
 62
     0
 10
21.4286500329892
 20
11.286087140344661
 30
0.0
 11
21.4286500329892
 21
11.286087140344661
 31
0.0
  0
LINE
  5
5B049
  8
0
 62
     0
 10
21.528086924093561
 20
11.38552403144903
 30
0.0
 11
21.528086924093561
 21
11.38552403144903
 31
0.0
  0
LINE
  5
5B04A
  8
0
 62
     0
 10
21.627523815197911
 20
11.48496092255338
 30
0.0
 11
21.627523815197911
 21
11.48496092255338
 31
0.0
  0
LINE
  5
5B04B
  8
0
 62
     0
 10
21.726960706302268
 20
11.584397813657739
 30
0.0
 11
21.726960706302268
 21
11.584397813657739
 31
0.0
  0
LINE
  5
5B04C
  8
0
 62
     0
 10
21.826397597406629
 20
11.6838347047621
 30
0.0
 11
21.826397597406629
 21
11.6838347047621
 31
0.0
  0
LINE
  5
5B04D
  8
0
 62
     0
 10
21.92583448851099
 20
11.783271595866459
 30
0.0
 11
21.92583448851099
 21
11.783271595866459
 31
0.0
  0
LINE
  5
5B04E
  8
0
 62
     0
 10
22.02527137961534
 20
11.88270848697082
 30
0.0
 11
22.02527137961534
 21
11.88270848697082
 31
0.0
  0
LINE
  5
5B04F
  8
0
 62
     0
 10
22.124708270719701
 20
11.982145378075179
 30
0.0
 11
22.124708270719701
 21
11.982145378075179
 31
0.0
  0
LINE
  5
5B050
  8
0
 62
     0
 10
22.224145161824062
 20
12.08158226917954
 30
0.0
 11
22.224145161824062
 21
12.08158226917954
 31
0.0
  0
LINE
  5
5B051
  8
0
 62
     0
 10
22.323582052928408
 20
12.181019160283901
 30
0.0
 11
22.323582052928408
 21
12.181019160283901
 31
0.0
  0
LINE
  5
5B052
  8
0
 62
     0
 10
22.423018944032769
 20
12.28045605138826
 30
0.0
 11
22.423018944032769
 21
12.28045605138826
 31
0.0
  0
LINE
  5
5B053
  8
0
 62
     0
 10
22.52245583513713
 20
12.379892942492621
 30
0.0
 11
22.52245583513713
 21
12.379892942492621
 31
0.0
  0
LINE
  5
5B054
  8
0
 62
     0
 10
22.621892726241491
 20
12.479329833596969
 30
0.0
 11
22.621892726241491
 21
12.479329833596969
 31
0.0
  0
LINE
  5
5B055
  8
0
 62
     0
 10
22.721329617345841
 20
12.57876672470133
 30
0.0
 11
22.721329617345841
 21
12.57876672470133
 31
0.0
  0
LINE
  5
5B056
  8
0
 62
     0
 10
22.820766508450198
 20
12.678203615805691
 30
0.0
 11
22.820766508450198
 21
12.678203615805691
 31
0.0
  0
LINE
  5
5B057
  8
0
 62
     0
 10
22.920203399554559
 20
12.77764050691005
 30
0.0
 11
22.920203399554559
 21
12.77764050691005
 31
0.0
  0
LINE
  5
5B058
  8
0
 62
     0
 10
23.01964029065892
 20
12.877077398014411
 30
0.0
 11
23.01964029065892
 21
12.877077398014411
 31
0.0
  0
LINE
  5
5B059
  8
0
 62
     0
 10
23.11907718176327
 20
12.97651428911877
 30
0.0
 11
23.11907718176327
 21
12.97651428911877
 31
0.0
  0
LINE
  5
5B05A
  8
0
 62
     0
 10
23.218514072867631
 20
13.075951180223131
 30
0.0
 11
23.218514072867631
 21
13.075951180223131
 31
0.0
  0
LINE
  5
5B05B
  8
0
 62
     0
 10
23.317950963971992
 20
13.17538807132749
 30
0.0
 11
23.317950963971992
 21
13.17538807132749
 31
0.0
  0
LINE
  5
5B05C
  8
0
 62
     0
 10
23.417387855076349
 20
13.27482496243185
 30
0.0
 11
23.417387855076349
 21
13.27482496243185
 31
0.0
  0
LINE
  5
5B05D
  8
0
 62
     0
 10
23.516824746180699
 20
13.374261853536209
 30
0.0
 11
23.516824746180699
 21
13.374261853536209
 31
0.0
  0
LINE
  5
5B05E
  8
0
 62
     0
 10
23.61626163728506
 20
13.47369874464056
 30
0.0
 11
23.61626163728506
 21
13.47369874464056
 31
0.0
  0
LINE
  5
5B05F
  8
0
 62
     0
 10
23.715698528389421
 20
13.57313563574492
 30
0.0
 11
23.715698528389421
 21
13.57313563574492
 31
0.0
  0
LINE
  5
5B060
  8
0
 62
     0
 10
23.815135419493771
 20
13.672572526849279
 30
0.0
 11
23.815135419493771
 21
13.672572526849279
 31
0.0
  0
LINE
  5
5B061
  8
0
 62
     0
 10
23.914572310598128
 20
13.77200941795364
 30
0.0
 11
23.914572310598128
 21
13.77200941795364
 31
0.0
  0
LINE
  5
5B062
  8
0
 62
     0
 10
24.014009201702489
 20
13.871446309057999
 30
0.0
 11
24.014009201702489
 21
13.871446309057999
 31
0.0
  0
LINE
  5
5B063
  8
0
 62
     0
 10
24.11344609280685
 20
13.97088320016236
 30
0.0
 11
24.11344609280685
 21
13.97088320016236
 31
0.0
  0
LINE
  5
5B064
  8
0
 62
     0
 10
24.2128829839112
 20
14.070320091266719
 30
0.0
 11
24.2128829839112
 21
14.070320091266719
 31
0.0
  0
LINE
  5
5B065
  8
0
 62
     0
 10
24.312319875015561
 20
14.16975698237108
 30
0.0
 11
24.312319875015561
 21
14.16975698237108
 31
0.0
  0
LINE
  5
5B066
  8
0
 62
     0
 10
24.411756766119922
 20
14.269193873475441
 30
0.0
 11
24.411756766119922
 21
14.269193873475441
 31
0.0
  0
LINE
  5
5B067
  8
0
 62
     0
 10
24.511193657224279
 20
14.3686307645798
 30
0.0
 11
24.511193657224279
 21
14.3686307645798
 31
0.0
  0
LINE
  5
5B068
  8
0
 62
     0
 10
21.37893158743702
 20
11.4352424770012
 30
0.0
 11
21.37893158743702
 21
11.4352424770012
 31
0.0
  0
LINE
  5
5B069
  8
0
 62
     0
 10
21.47836847854138
 20
11.534679368105561
 30
0.0
 11
21.47836847854138
 21
11.534679368105561
 31
0.0
  0
LINE
  5
5B06A
  8
0
 62
     0
 10
21.577805369645741
 20
11.63411625920992
 30
0.0
 11
21.577805369645741
 21
11.63411625920992
 31
0.0
  0
LINE
  5
5B06B
  8
0
 62
     0
 10
21.677242260750099
 20
11.73355315031427
 30
0.0
 11
21.677242260750099
 21
11.73355315031427
 31
0.0
  0
LINE
  5
5B06C
  8
0
 62
     0
 10
21.776679151854449
 20
11.832990041418631
 30
0.0
 11
21.776679151854449
 21
11.832990041418631
 31
0.0
  0
LINE
  5
5B06D
  8
0
 62
     0
 10
21.87611604295881
 20
11.93242693252299
 30
0.0
 11
21.87611604295881
 21
11.93242693252299
 31
0.0
  0
LINE
  5
5B06E
  8
0
 62
     0
 10
21.97555293406317
 20
12.031863823627351
 30
0.0
 11
21.97555293406317
 21
12.031863823627351
 31
0.0
  0
LINE
  5
5B06F
  8
0
 62
     0
 10
22.074989825167531
 20
12.13130071473171
 30
0.0
 11
22.074989825167531
 21
12.13130071473171
 31
0.0
  0
LINE
  5
5B070
  8
0
 62
     0
 10
22.174426716271881
 20
12.230737605836071
 30
0.0
 11
22.174426716271881
 21
12.230737605836071
 31
0.0
  0
LINE
  5
5B071
  8
0
 62
     0
 10
22.273863607376239
 20
12.33017449694043
 30
0.0
 11
22.273863607376239
 21
12.33017449694043
 31
0.0
  0
LINE
  5
5B072
  8
0
 62
     0
 10
22.373300498480589
 20
12.42961138804479
 30
0.0
 11
22.373300498480589
 21
12.42961138804479
 31
0.0
  0
LINE
  5
5B073
  8
0
 62
     0
 10
22.47273738958496
 20
12.52904827914915
 30
0.0
 11
22.47273738958496
 21
12.52904827914915
 31
0.0
  0
LINE
  5
5B074
  8
0
 62
     0
 10
22.57217428068931
 20
12.62848517025351
 30
0.0
 11
22.57217428068931
 21
12.62848517025351
 31
0.0
  0
LINE
  5
5B075
  8
0
 62
     0
 10
22.671611171793671
 20
12.727922061357869
 30
0.0
 11
22.671611171793671
 21
12.727922061357869
 31
0.0
  0
LINE
  5
5B076
  8
0
 62
     0
 10
22.771048062898021
 20
12.82735895246222
 30
0.0
 11
22.771048062898021
 21
12.82735895246222
 31
0.0
  0
LINE
  5
5B077
  8
0
 62
     0
 10
22.870484954002379
 20
12.92679584356658
 30
0.0
 11
22.870484954002379
 21
12.92679584356658
 31
0.0
  0
LINE
  5
5B078
  8
0
 62
     0
 10
22.96992184510674
 20
13.026232734670939
 30
0.0
 11
22.96992184510674
 21
13.026232734670939
 31
0.0
  0
LINE
  5
5B079
  8
0
 62
     0
 10
23.0693587362111
 20
13.1256696257753
 30
0.0
 11
23.0693587362111
 21
13.1256696257753
 31
0.0
  0
LINE
  5
5B07A
  8
0
 62
     0
 10
23.168795627315451
 20
13.225106516879659
 30
0.0
 11
23.168795627315451
 21
13.225106516879659
 31
0.0
  0
LINE
  5
5B07B
  8
0
 62
     0
 10
23.268232518419811
 20
13.32454340798402
 30
0.0
 11
23.268232518419811
 21
13.32454340798402
 31
0.0
  0
LINE
  5
5B07C
  8
0
 62
     0
 10
23.367669409524169
 20
13.423980299088379
 30
0.0
 11
23.367669409524169
 21
13.423980299088379
 31
0.0
  0
LINE
  5
5B07D
  8
0
 62
     0
 10
23.467106300628529
 20
13.52341719019274
 30
0.0
 11
23.467106300628529
 21
13.52341719019274
 31
0.0
  0
LINE
  5
5B07E
  8
0
 62
     0
 10
23.56654319173288
 20
13.622854081297101
 30
0.0
 11
23.56654319173288
 21
13.622854081297101
 31
0.0
  0
LINE
  5
5B07F
  8
0
 62
     0
 10
23.66598008283724
 20
13.72229097240146
 30
0.0
 11
23.66598008283724
 21
13.72229097240146
 31
0.0
  0
LINE
  5
5B080
  8
0
 62
     0
 10
23.765416973941601
 20
13.82172786350581
 30
0.0
 11
23.765416973941601
 21
13.82172786350581
 31
0.0
  0
LINE
  5
5B081
  8
0
 62
     0
 10
23.864853865045951
 20
13.92116475461018
 30
0.0
 11
23.864853865045951
 21
13.92116475461018
 31
0.0
  0
LINE
  5
5B082
  8
0
 62
     0
 10
23.964290756150309
 20
14.02060164571453
 30
0.0
 11
23.964290756150309
 21
14.02060164571453
 31
0.0
  0
LINE
  5
5B083
  8
0
 62
     0
 10
24.06372764725467
 20
14.120038536818891
 30
0.0
 11
24.06372764725467
 21
14.120038536818891
 31
0.0
  0
LINE
  5
5B084
  8
0
 62
     0
 10
24.16316453835903
 20
14.21947542792325
 30
0.0
 11
24.16316453835903
 21
14.21947542792325
 31
0.0
  0
LINE
  5
5B085
  8
0
 62
     0
 10
24.26260142946338
 20
14.318912319027611
 30
0.0
 11
24.26260142946338
 21
14.318912319027611
 31
0.0
  0
LINE
  5
5B086
  8
0
 62
     0
 10
24.362038320567741
 20
14.41834921013197
 30
0.0
 11
24.362038320567741
 21
14.41834921013197
 31
0.0
  0
LINE
  5
5B087
  8
0
 62
     0
 10
21.726960706302279
 20
11.98214537807517
 30
0.0
 11
21.726960706302279
 21
11.98214537807517
 31
0.0
  0
LINE
  5
5B088
  8
0
 62
     0
 10
21.82639759740664
 20
12.081582269179529
 30
0.0
 11
21.82639759740664
 21
12.081582269179529
 31
0.0
  0
LINE
  5
5B089
  8
0
 62
     0
 10
21.92583448851099
 20
12.18101916028389
 30
0.0
 11
21.92583448851099
 21
12.18101916028389
 31
0.0
  0
LINE
  5
5B08A
  8
0
 62
     0
 10
22.025271379615351
 20
12.280456051388249
 30
0.0
 11
22.025271379615351
 21
12.280456051388249
 31
0.0
  0
LINE
  5
5B08B
  8
0
 62
     0
 10
22.124708270719712
 20
12.37989294249261
 30
0.0
 11
22.124708270719712
 21
12.37989294249261
 31
0.0
  0
LINE
  5
5B08C
  8
0
 62
     0
 10
22.224145161824069
 20
12.479329833596969
 30
0.0
 11
22.224145161824069
 21
12.479329833596969
 31
0.0
  0
LINE
  5
5B08D
  8
0
 62
     0
 10
22.323582052928419
 20
12.578766724701319
 30
0.0
 11
22.323582052928419
 21
12.578766724701319
 31
0.0
  0
LINE
  5
5B08E
  8
0
 62
     0
 10
22.42301894403278
 20
12.67820361580568
 30
0.0
 11
22.42301894403278
 21
12.67820361580568
 31
0.0
  0
LINE
  5
5B08F
  8
0
 62
     0
 10
22.522455835137141
 20
12.777640506910039
 30
0.0
 11
22.522455835137141
 21
12.777640506910039
 31
0.0
  0
LINE
  5
5B090
  8
0
 62
     0
 10
22.621892726241501
 20
12.8770773980144
 30
0.0
 11
22.621892726241501
 21
12.8770773980144
 31
0.0
  0
LINE
  5
5B091
  8
0
 62
     0
 10
22.721329617345852
 20
12.976514289118761
 30
0.0
 11
22.721329617345852
 21
12.976514289118761
 31
0.0
  0
LINE
  5
5B092
  8
0
 62
     0
 10
22.820766508450209
 20
13.07595118022312
 30
0.0
 11
22.820766508450209
 21
13.07595118022312
 31
0.0
  0
LINE
  5
5B093
  8
0
 62
     0
 10
22.92020339955457
 20
13.175388071327481
 30
0.0
 11
22.92020339955457
 21
13.175388071327481
 31
0.0
  0
LINE
  5
5B094
  8
0
 62
     0
 10
23.01964029065892
 20
13.27482496243184
 30
0.0
 11
23.01964029065892
 21
13.27482496243184
 31
0.0
  0
LINE
  5
5B095
  8
0
 62
     0
 10
23.119077181763281
 20
13.374261853536201
 30
0.0
 11
23.119077181763281
 21
13.374261853536201
 31
0.0
  0
LINE
  5
5B096
  8
0
 62
     0
 10
23.218514072867642
 20
13.47369874464056
 30
0.0
 11
23.218514072867642
 21
13.47369874464056
 31
0.0
  0
LINE
  5
5B097
  8
0
 62
     0
 10
23.317950963971999
 20
13.57313563574491
 30
0.0
 11
23.317950963971999
 21
13.57313563574491
 31
0.0
  0
LINE
  5
5B098
  8
0
 62
     0
 10
23.417387855076349
 20
13.672572526849271
 30
0.0
 11
23.417387855076349
 21
13.672572526849271
 31
0.0
  0
LINE
  5
5B099
  8
0
 62
     0
 10
23.51682474618071
 20
13.77200941795363
 30
0.0
 11
23.51682474618071
 21
13.77200941795363
 31
0.0
  0
LINE
  5
5B09A
  8
0
 62
     0
 10
23.616261637285071
 20
13.87144630905799
 30
0.0
 11
23.616261637285071
 21
13.87144630905799
 31
0.0
  0
LINE
  5
5B09B
  8
0
 62
     0
 10
23.715698528389431
 20
13.97088320016235
 30
0.0
 11
23.715698528389431
 21
13.97088320016235
 31
0.0
  0
LINE
  5
5B09C
  8
0
 62
     0
 10
23.815135419493782
 20
14.07032009126671
 30
0.0
 11
23.815135419493782
 21
14.07032009126671
 31
0.0
  0
LINE
  5
5B09D
  8
0
 62
     0
 10
23.914572310598139
 20
14.169756982371069
 30
0.0
 11
23.914572310598139
 21
14.169756982371069
 31
0.0
  0
LINE
  5
5B09E
  8
0
 62
     0
 10
24.0140092017025
 20
14.26919387347543
 30
0.0
 11
24.0140092017025
 21
14.26919387347543
 31
0.0
  0
LINE
  5
5B09F
  8
0
 62
     0
 10
24.113446092806861
 20
14.368630764579789
 30
0.0
 11
24.113446092806861
 21
14.368630764579789
 31
0.0
  0
LINE
  5
5B0A0
  8
0
 62
     0
 10
24.212882983911211
 20
14.46806765568415
 30
0.0
 11
24.212882983911211
 21
14.46806765568415
 31
0.0
  0
LINE
  5
5B0A1
  8
0
 62
     0
 10
21.97555293406317
 20
12.42961138804478
 30
0.0
 11
21.97555293406317
 21
12.42961138804478
 31
0.0
  0
LINE
  5
5B0A2
  8
0
 62
     0
 10
22.074989825167531
 20
12.529048279149141
 30
0.0
 11
22.074989825167531
 21
12.529048279149141
 31
0.0
  0
LINE
  5
5B0A3
  8
0
 62
     0
 10
22.174426716271888
 20
12.6284851702535
 30
0.0
 11
22.174426716271888
 21
12.6284851702535
 31
0.0
  0
LINE
  5
5B0A4
  8
0
 62
     0
 10
22.273863607376249
 20
12.727922061357861
 30
0.0
 11
22.273863607376249
 21
12.727922061357861
 31
0.0
  0
LINE
  5
5B0A5
  8
0
 62
     0
 10
22.373300498480599
 20
12.82735895246222
 30
0.0
 11
22.373300498480599
 21
12.82735895246222
 31
0.0
  0
LINE
  5
5B0A6
  8
0
 62
     0
 10
22.47273738958496
 20
12.92679584356658
 30
0.0
 11
22.47273738958496
 21
12.92679584356658
 31
0.0
  0
LINE
  5
5B0A7
  8
0
 62
     0
 10
22.572174280689321
 20
13.026232734670939
 30
0.0
 11
22.572174280689321
 21
13.026232734670939
 31
0.0
  0
LINE
  5
5B0A8
  8
0
 62
     0
 10
22.671611171793678
 20
13.1256696257753
 30
0.0
 11
22.671611171793678
 21
13.1256696257753
 31
0.0
  0
LINE
  5
5B0A9
  8
0
 62
     0
 10
22.771048062898029
 20
13.22510651687965
 30
0.0
 11
22.771048062898029
 21
13.22510651687965
 31
0.0
  0
LINE
  5
5B0AA
  8
0
 62
     0
 10
22.870484954002389
 20
13.324543407984009
 30
0.0
 11
22.870484954002389
 21
13.324543407984009
 31
0.0
  0
LINE
  5
5B0AB
  8
0
 62
     0
 10
22.96992184510675
 20
13.42398029908837
 30
0.0
 11
22.96992184510675
 21
13.42398029908837
 31
0.0
  0
LINE
  5
5B0AC
  8
0
 62
     0
 10
23.0693587362111
 20
13.523417190192729
 30
0.0
 11
23.0693587362111
 21
13.523417190192729
 31
0.0
  0
LINE
  5
5B0AD
  8
0
 62
     0
 10
23.168795627315461
 20
13.62285408129709
 30
0.0
 11
23.168795627315461
 21
13.62285408129709
 31
0.0
  0
LINE
  5
5B0AE
  8
0
 62
     0
 10
23.268232518419818
 20
13.722290972401449
 30
0.0
 11
23.268232518419818
 21
13.722290972401449
 31
0.0
  0
LINE
  5
5B0AF
  8
0
 62
     0
 10
23.367669409524179
 20
13.82172786350581
 30
0.0
 11
23.367669409524179
 21
13.82172786350581
 31
0.0
  0
LINE
  5
5B0B0
  8
0
 62
     0
 10
23.467106300628529
 20
13.921164754610169
 30
0.0
 11
23.467106300628529
 21
13.921164754610169
 31
0.0
  0
LINE
  5
5B0B1
  8
0
 62
     0
 10
23.56654319173289
 20
14.02060164571453
 30
0.0
 11
23.56654319173289
 21
14.02060164571453
 31
0.0
  0
LINE
  5
5B0B2
  8
0
 62
     0
 10
23.665980082837251
 20
14.120038536818891
 30
0.0
 11
23.665980082837251
 21
14.120038536818891
 31
0.0
  0
LINE
  5
5B0B3
  8
0
 62
     0
 10
23.765416973941608
 20
14.219475427923239
 30
0.0
 11
23.765416973941608
 21
14.219475427923239
 31
0.0
  0
LINE
  5
5B0B4
  8
0
 62
     0
 10
22.224145161824069
 20
12.877077398014389
 30
0.0
 11
22.224145161824069
 21
12.877077398014389
 31
0.0
  0
LINE
  5
5B0B5
  8
0
 62
     0
 10
22.32358205292843
 20
12.97651428911875
 30
0.0
 11
22.32358205292843
 21
12.97651428911875
 31
0.0
  0
LINE
  5
5B0B6
  8
0
 62
     0
 10
22.42301894403278
 20
13.075951180223109
 30
0.0
 11
22.42301894403278
 21
13.075951180223109
 31
0.0
  0
LINE
  5
5B0B7
  8
0
 62
     0
 10
22.522455835137141
 20
13.17538807132747
 30
0.0
 11
22.522455835137141
 21
13.17538807132747
 31
0.0
  0
LINE
  5
5B0B8
  8
0
 62
     0
 10
22.621892726241501
 20
13.274824962431831
 30
0.0
 11
22.621892726241501
 21
13.274824962431831
 31
0.0
  0
LINE
  5
5B0B9
  8
0
 62
     0
 10
22.721329617345859
 20
13.37426185353619
 30
0.0
 11
22.721329617345859
 21
13.37426185353619
 31
0.0
  0
LINE
  5
5B0BA
  8
0
 62
     0
 10
22.820766508450209
 20
13.473698744640551
 30
0.0
 11
22.820766508450209
 21
13.473698744640551
 31
0.0
  0
LINE
  5
5B0BB
  8
0
 62
     0
 10
22.92020339955457
 20
13.57313563574491
 30
0.0
 11
22.92020339955457
 21
13.57313563574491
 31
0.0
  0
LINE
  5
5B0BC
  8
0
 62
     0
 10
23.019640290658931
 20
13.67257252684926
 30
0.0
 11
23.019640290658931
 21
13.67257252684926
 31
0.0
  0
LINE
  5
5B0BD
  8
0
 62
     0
 10
23.119077181763281
 20
13.77200941795363
 30
0.0
 11
23.119077181763281
 21
13.77200941795363
 31
0.0
  0
LINE
  5
5B0BE
  8
0
 62
     0
 10
23.218514072867642
 20
13.87144630905798
 30
0.0
 11
23.218514072867642
 21
13.87144630905798
 31
0.0
  0
LINE
  5
5B0BF
  8
0
 62
     0
 10
22.472737389584971
 20
13.324543407984009
 30
0.0
 11
22.472737389584971
 21
13.324543407984009
 31
0.0
  0
LINE
  5
5B0C0
  8
0
 62
     0
 10
22.572174280689321
 20
13.42398029908836
 30
0.0
 11
22.572174280689321
 21
13.42398029908836
 31
0.0
  0
LINE
  5
5B0C1
  8
0
 62
     0
 10
22.671611171793678
 20
13.52341719019272
 30
0.0
 11
22.671611171793678
 21
13.52341719019272
 31
0.0
  0
LINE
  5
5B0C2
  8
0
 62
     0
 10
22.771048062898039
 20
13.62285408129708
 30
0.0
 11
22.771048062898039
 21
13.62285408129708
 31
0.0
  0
LINE
  5
5B0C3
  8
0
 62
     0
 10
17.302019052158329
 20
3.380854297548181
 30
0.0
 11
17.302019052158329
 21
3.380854297548181
 31
0.0
  0
LINE
  5
5B0C4
  8
0
 62
     0
 10
17.40145594326269
 20
3.4802911886525392
 30
0.0
 11
17.40145594326269
 21
3.4802911886525392
 31
0.0
  0
LINE
  5
5B0C5
  8
0
 62
     0
 10
17.50089283436705
 20
3.5797280797568969
 30
0.0
 11
17.50089283436705
 21
3.5797280797568969
 31
0.0
  0
LINE
  5
5B0C6
  8
0
 62
     0
 10
17.600329725471411
 20
3.679164970861255
 30
0.0
 11
17.600329725471411
 21
3.679164970861255
 31
0.0
  0
LINE
  5
5B0C7
  8
0
 62
     0
 10
17.699766616575761
 20
3.7786018619656141
 30
0.0
 11
17.699766616575761
 21
3.7786018619656141
 31
0.0
  0
LINE
  5
5B0C8
  8
0
 62
     0
 10
17.799203507680119
 20
3.8780387530699718
 30
0.0
 11
17.799203507680119
 21
3.8780387530699718
 31
0.0
  0
LINE
  5
5B0C9
  8
0
 62
     0
 10
17.89864039878448
 20
3.97747564417433
 30
0.0
 11
17.89864039878448
 21
3.97747564417433
 31
0.0
  0
LINE
  5
5B0CA
  8
0
 62
     0
 10
17.99807728988884
 20
4.076912535278689
 30
0.0
 11
17.99807728988884
 21
4.076912535278689
 31
0.0
  0
LINE
  5
5B0CB
  8
0
 62
     0
 10
18.097514180993191
 20
4.1763494263830472
 30
0.0
 11
18.097514180993191
 21
4.1763494263830472
 31
0.0
  0
LINE
  5
5B0CC
  8
0
 62
     0
 10
18.196951072097551
 20
4.2757863174874053
 30
0.0
 11
18.196951072097551
 21
4.2757863174874053
 31
0.0
  0
LINE
  5
5B0CD
  8
0
 62
     0
 10
18.296387963201909
 20
4.3752232085917626
 30
0.0
 11
18.296387963201909
 21
4.3752232085917626
 31
0.0
  0
LINE
  5
5B0CE
  8
0
 62
     0
 10
18.395824854306259
 20
4.4746600996961208
 30
0.0
 11
18.395824854306259
 21
4.4746600996961208
 31
0.0
  0
LINE
  5
5B0CF
  8
0
 62
     0
 10
18.49526174541062
 20
4.5740969908004789
 30
0.0
 11
18.49526174541062
 21
4.5740969908004789
 31
0.0
  0
LINE
  5
5B0D0
  8
0
 62
     0
 10
18.59469863651498
 20
4.6735338819048371
 30
0.0
 11
18.59469863651498
 21
4.6735338819048371
 31
0.0
  0
LINE
  5
5B0D1
  8
0
 62
     0
 10
18.694135527619331
 20
4.7729707730091961
 30
0.0
 11
18.694135527619331
 21
4.7729707730091961
 31
0.0
  0
LINE
  5
5B0D2
  8
0
 62
     0
 10
18.793572418723691
 20
4.8724076641135543
 30
0.0
 11
18.793572418723691
 21
4.8724076641135543
 31
0.0
  0
LINE
  5
5B0D3
  8
0
 62
     0
 10
18.893009309828049
 20
4.9718445552179116
 30
0.0
 11
18.893009309828049
 21
4.9718445552179116
 31
0.0
  0
LINE
  5
5B0D4
  8
0
 62
     0
 10
18.99244620093241
 20
5.0712814463222697
 30
0.0
 11
18.99244620093241
 21
5.0712814463222697
 31
0.0
  0
LINE
  5
5B0D5
  8
0
 62
     0
 10
19.09188309203677
 20
5.1707183374266279
 30
0.0
 11
19.09188309203677
 21
5.1707183374266279
 31
0.0
  0
LINE
  5
5B0D6
  8
0
 62
     0
 10
19.191319983141121
 20
5.2701552285309861
 30
0.0
 11
19.191319983141121
 21
5.2701552285309861
 31
0.0
  0
LINE
  5
5B0D7
  8
0
 62
     0
 10
19.290756874245481
 20
5.3695921196353451
 30
0.0
 11
19.290756874245481
 21
5.3695921196353451
 31
0.0
  0
LINE
  5
5B0D8
  8
0
 62
     0
 10
19.390193765349839
 20
5.4690290107397033
 30
0.0
 11
19.390193765349839
 21
5.4690290107397033
 31
0.0
  0
LINE
  5
5B0D9
  8
0
 62
     0
 10
19.489630656454189
 20
5.5684659018440614
 30
0.0
 11
19.489630656454189
 21
5.5684659018440614
 31
0.0
  0
LINE
  5
5B0DA
  8
0
 62
     0
 10
19.58906754755855
 20
5.6679027929484187
 30
0.0
 11
19.58906754755855
 21
5.6679027929484187
 31
0.0
  0
LINE
  5
5B0DB
  8
0
 62
     0
 10
19.68850443866291
 20
5.7673396840527769
 30
0.0
 11
19.68850443866291
 21
5.7673396840527769
 31
0.0
  0
LINE
  5
5B0DC
  8
0
 62
     0
 10
19.787941329767271
 20
5.866776575157135
 30
0.0
 11
19.787941329767271
 21
5.866776575157135
 31
0.0
  0
LINE
  5
5B0DD
  8
0
 62
     0
 10
19.887378220871621
 20
5.9662134662614941
 30
0.0
 11
19.887378220871621
 21
5.9662134662614941
 31
0.0
  0
LINE
  5
5B0DE
  8
0
 62
     0
 10
19.986815111975979
 20
6.0656503573658522
 30
0.0
 11
19.986815111975979
 21
6.0656503573658522
 31
0.0
  0
LINE
  5
5B0DF
  8
0
 62
     0
 10
20.08625200308034
 20
6.1650872484702104
 30
0.0
 11
20.08625200308034
 21
6.1650872484702104
 31
0.0
  0
LINE
  5
5B0E0
  8
0
 62
     0
 10
20.1856888941847
 20
6.2645241395745677
 30
0.0
 11
20.1856888941847
 21
6.2645241395745677
 31
0.0
  0
LINE
  5
5B0E1
  8
0
 62
     0
 10
20.285125785289051
 20
6.3639610306789258
 30
0.0
 11
20.285125785289051
 21
6.3639610306789258
 31
0.0
  0
LINE
  5
5B0E2
  8
0
 62
     0
 10
20.384562676393411
 20
6.463397921783284
 30
0.0
 11
20.384562676393411
 21
6.463397921783284
 31
0.0
  0
LINE
  5
5B0E3
  8
0
 62
     0
 10
20.483999567497769
 20
6.562834812887643
 30
0.0
 11
20.483999567497769
 21
6.562834812887643
 31
0.0
  0
LINE
  5
5B0E4
  8
0
 62
     0
 10
20.583436458602129
 20
6.6622717039920012
 30
0.0
 11
20.583436458602129
 21
6.6622717039920012
 31
0.0
  0
LINE
  5
5B0E5
  8
0
 62
     0
 10
20.68287334970648
 20
6.7617085950963594
 30
0.0
 11
20.68287334970648
 21
6.7617085950963594
 31
0.0
  0
LINE
  5
5B0E6
  8
0
 62
     0
 10
20.78231024081084
 20
6.8611454862007166
 30
0.0
 11
20.78231024081084
 21
6.8611454862007166
 31
0.0
  0
LINE
  5
5B0E7
  8
0
 62
     0
 10
20.881747131915201
 20
6.9605823773050748
 30
0.0
 11
20.881747131915201
 21
6.9605823773050748
 31
0.0
  0
LINE
  5
5B0E8
  8
0
 62
     0
 10
20.981184023019559
 20
7.0600192684094329
 30
0.0
 11
20.981184023019559
 21
7.0600192684094329
 31
0.0
  0
LINE
  5
5B0E9
  8
0
 62
     0
 10
21.080620914123909
 20
7.1594561595137911
 30
0.0
 11
21.080620914123909
 21
7.1594561595137911
 31
0.0
  0
LINE
  5
5B0EA
  8
0
 62
     0
 10
21.18005780522827
 20
7.2588930506181502
 30
0.0
 11
21.18005780522827
 21
7.2588930506181502
 31
0.0
  0
LINE
  5
5B0EB
  8
0
 62
     0
 10
21.27949469633263
 20
7.3583299417225083
 30
0.0
 11
21.27949469633263
 21
7.3583299417225083
 31
0.0
  0
LINE
  5
5B0EC
  8
0
 62
     0
 10
21.378931587436991
 20
7.4577668328268656
 30
0.0
 11
21.378931587436991
 21
7.4577668328268656
 31
0.0
  0
LINE
  5
5B0ED
  8
0
 62
     0
 10
21.478368478541341
 20
7.5572037239312237
 30
0.0
 11
21.478368478541341
 21
7.5572037239312237
 31
0.0
  0
LINE
  5
5B0EE
  8
0
 62
     0
 10
21.577805369645699
 20
7.6566406150355819
 30
0.0
 11
21.577805369645699
 21
7.6566406150355819
 31
0.0
  0
LINE
  5
5B0EF
  8
0
 62
     0
 10
21.677242260750059
 20
7.7560775061399401
 30
0.0
 11
21.677242260750059
 21
7.7560775061399401
 31
0.0
  0
LINE
  5
5B0F0
  8
0
 62
     0
 10
21.77667915185441
 20
7.8555143972442991
 30
0.0
 11
21.77667915185441
 21
7.8555143972442991
 31
0.0
  0
LINE
  5
5B0F1
  8
0
 62
     0
 10
21.87611604295877
 20
7.9549512883486573
 30
0.0
 11
21.87611604295877
 21
7.9549512883486573
 31
0.0
  0
LINE
  5
5B0F2
  8
0
 62
     0
 10
21.975552934063131
 20
8.0543881794530154
 30
0.0
 11
21.975552934063131
 21
8.0543881794530154
 31
0.0
  0
LINE
  5
5B0F3
  8
0
 62
     0
 10
17.351737497710509
 20
3.2316989608916442
 30
0.0
 11
17.351737497710509
 21
3.2316989608916442
 31
0.0
  0
LINE
  5
5B0F4
  8
0
 62
     0
 10
17.45117438881487
 20
3.3311358519960019
 30
0.0
 11
17.45117438881487
 21
3.3311358519960019
 31
0.0
  0
LINE
  5
5B0F5
  8
0
 62
     0
 10
17.550611279919231
 20
3.4305727431003601
 30
0.0
 11
17.550611279919231
 21
3.4305727431003601
 31
0.0
  0
LINE
  5
5B0F6
  8
0
 62
     0
 10
17.650048171023581
 20
3.5300096342047178
 30
0.0
 11
17.650048171023581
 21
3.5300096342047178
 31
0.0
  0
LINE
  5
5B0F7
  8
0
 62
     0
 10
17.749485062127938
 20
3.629446525309076
 30
0.0
 11
17.749485062127938
 21
3.629446525309076
 31
0.0
  0
LINE
  5
5B0F8
  8
0
 62
     0
 10
17.848921953232299
 20
3.728883416413435
 30
0.0
 11
17.848921953232299
 21
3.728883416413435
 31
0.0
  0
LINE
  5
5B0F9
  8
0
 62
     0
 10
17.948358844336649
 20
3.8283203075177932
 30
0.0
 11
17.948358844336649
 21
3.8283203075177932
 31
0.0
  0
LINE
  5
5B0FA
  8
0
 62
     0
 10
18.04779573544101
 20
3.9277571986221509
 30
0.0
 11
18.04779573544101
 21
3.9277571986221509
 31
0.0
  0
LINE
  5
5B0FB
  8
0
 62
     0
 10
18.147232626545371
 20
4.0271940897265086
 30
0.0
 11
18.147232626545371
 21
4.0271940897265086
 31
0.0
  0
LINE
  5
5B0FC
  8
0
 62
     0
 10
18.246669517649732
 20
4.1266309808308668
 30
0.0
 11
18.246669517649732
 21
4.1266309808308668
 31
0.0
  0
LINE
  5
5B0FD
  8
0
 62
     0
 10
18.346106408754078
 20
4.2260678719352249
 30
0.0
 11
18.346106408754078
 21
4.2260678719352249
 31
0.0
  0
LINE
  5
5B0FE
  8
0
 62
     0
 10
18.445543299858439
 20
4.3255047630395831
 30
0.0
 11
18.445543299858439
 21
4.3255047630395831
 31
0.0
  0
LINE
  5
5B0FF
  8
0
 62
     0
 10
18.5449801909628
 20
4.4249416541439421
 30
0.0
 11
18.5449801909628
 21
4.4249416541439421
 31
0.0
  0
LINE
  5
5B100
  8
0
 62
     0
 10
18.64441708206715
 20
4.5243785452483003
 30
0.0
 11
18.64441708206715
 21
4.5243785452483003
 31
0.0
  0
LINE
  5
5B101
  8
0
 62
     0
 10
18.743853973171511
 20
4.6238154363526576
 30
0.0
 11
18.743853973171511
 21
4.6238154363526576
 31
0.0
  0
LINE
  5
5B102
  8
0
 62
     0
 10
18.843290864275868
 20
4.7232523274570157
 30
0.0
 11
18.843290864275868
 21
4.7232523274570157
 31
0.0
  0
LINE
  5
5B103
  8
0
 62
     0
 10
18.942727755380229
 20
4.8226892185613739
 30
0.0
 11
18.942727755380229
 21
4.8226892185613739
 31
0.0
  0
LINE
  5
5B104
  8
0
 62
     0
 10
19.042164646484579
 20
4.9221261096657321
 30
0.0
 11
19.042164646484579
 21
4.9221261096657321
 31
0.0
  0
LINE
  5
5B105
  8
0
 62
     0
 10
19.14160153758894
 20
5.0215630007700911
 30
0.0
 11
19.14160153758894
 21
5.0215630007700911
 31
0.0
  0
LINE
  5
5B106
  8
0
 62
     0
 10
19.241038428693301
 20
5.1209998918744493
 30
0.0
 11
19.241038428693301
 21
5.1209998918744493
 31
0.0
  0
LINE
  5
5B107
  8
0
 62
     0
 10
19.340475319797662
 20
5.2204367829788074
 30
0.0
 11
19.340475319797662
 21
5.2204367829788074
 31
0.0
  0
LINE
  5
5B108
  8
0
 62
     0
 10
19.439912210902008
 20
5.3198736740831647
 30
0.0
 11
19.439912210902008
 21
5.3198736740831647
 31
0.0
  0
LINE
  5
5B109
  8
0
 62
     0
 10
19.539349102006369
 20
5.4193105651875229
 30
0.0
 11
19.539349102006369
 21
5.4193105651875229
 31
0.0
  0
LINE
  5
5B10A
  8
0
 62
     0
 10
19.63878599311073
 20
5.518747456291881
 30
0.0
 11
19.63878599311073
 21
5.518747456291881
 31
0.0
  0
LINE
  5
5B10B
  8
0
 62
     0
 10
19.738222884215091
 20
5.6181843473962401
 30
0.0
 11
19.738222884215091
 21
5.6181843473962401
 31
0.0
  0
LINE
  5
5B10C
  8
0
 62
     0
 10
19.837659775319441
 20
5.7176212385005982
 30
0.0
 11
19.837659775319441
 21
5.7176212385005982
 31
0.0
  0
LINE
  5
5B10D
  8
0
 62
     0
 10
19.937096666423798
 20
5.8170581296049564
 30
0.0
 11
19.937096666423798
 21
5.8170581296049564
 31
0.0
  0
LINE
  5
5B10E
  8
0
 62
     0
 10
20.036533557528159
 20
5.9164950207093137
 30
0.0
 11
20.036533557528159
 21
5.9164950207093137
 31
0.0
  0
LINE
  5
5B10F
  8
0
 62
     0
 10
20.13597044863252
 20
6.0159319118136718
 30
0.0
 11
20.13597044863252
 21
6.0159319118136718
 31
0.0
  0
LINE
  5
5B110
  8
0
 62
     0
 10
20.23540733973687
 20
6.11536880291803
 30
0.0
 11
20.23540733973687
 21
6.11536880291803
 31
0.0
  0
LINE
  5
5B111
  8
0
 62
     0
 10
20.334844230841231
 20
6.214805694022389
 30
0.0
 11
20.334844230841231
 21
6.214805694022389
 31
0.0
  0
LINE
  5
5B112
  8
0
 62
     0
 10
20.434281121945592
 20
6.3142425851267472
 30
0.0
 11
20.434281121945592
 21
6.3142425851267472
 31
0.0
  0
LINE
  5
5B113
  8
0
 62
     0
 10
20.533718013049949
 20
6.4136794762311053
 30
0.0
 11
20.533718013049949
 21
6.4136794762311053
 31
0.0
  0
LINE
  5
5B114
  8
0
 62
     0
 10
20.633154904154299
 20
6.5131163673354626
 30
0.0
 11
20.633154904154299
 21
6.5131163673354626
 31
0.0
  0
LINE
  5
5B115
  8
0
 62
     0
 10
20.73259179525866
 20
6.6125532584398208
 30
0.0
 11
20.73259179525866
 21
6.6125532584398208
 31
0.0
  0
LINE
  5
5B116
  8
0
 62
     0
 10
20.832028686363021
 20
6.7119901495441789
 30
0.0
 11
20.832028686363021
 21
6.7119901495441789
 31
0.0
  0
LINE
  5
5B117
  8
0
 62
     0
 10
20.931465577467382
 20
6.8114270406485371
 30
0.0
 11
20.931465577467382
 21
6.8114270406485371
 31
0.0
  0
LINE
  5
5B118
  8
0
 62
     0
 10
21.030902468571728
 20
6.9108639317528961
 30
0.0
 11
21.030902468571728
 21
6.9108639317528961
 31
0.0
  0
LINE
  5
5B119
  8
0
 62
     0
 10
21.130339359676089
 20
7.0103008228572543
 30
0.0
 11
21.130339359676089
 21
7.0103008228572543
 31
0.0
  0
LINE
  5
5B11A
  8
0
 62
     0
 10
21.229776250780439
 20
7.1097377139616116
 30
0.0
 11
21.229776250780439
 21
7.1097377139616116
 31
0.0
  0
LINE
  5
5B11B
  8
0
 62
     0
 10
21.329213141884811
 20
7.2091746050659697
 30
0.0
 11
21.329213141884811
 21
7.2091746050659697
 31
0.0
  0
LINE
  5
5B11C
  8
0
 62
     0
 10
21.428650032989161
 20
7.3086114961703279
 30
0.0
 11
21.428650032989161
 21
7.3086114961703279
 31
0.0
  0
LINE
  5
5B11D
  8
0
 62
     0
 10
21.528086924093522
 20
7.4080483872746861
 30
0.0
 11
21.528086924093522
 21
7.4080483872746861
 31
0.0
  0
LINE
  5
5B11E
  8
0
 62
     0
 10
21.627523815197868
 20
7.5074852783790451
 30
0.0
 11
21.627523815197868
 21
7.5074852783790451
 31
0.0
  0
LINE
  5
5B11F
  8
0
 62
     0
 10
21.726960706302229
 20
7.6069221694834033
 30
0.0
 11
21.726960706302229
 21
7.6069221694834033
 31
0.0
  0
LINE
  5
5B120
  8
0
 62
     0
 10
17.302019052158329
 20
2.9831067331307501
 30
0.0
 11
17.302019052158329
 21
2.9831067331307501
 31
0.0
  0
LINE
  5
5B121
  8
0
 62
     0
 10
17.40145594326269
 20
3.0825436242351079
 30
0.0
 11
17.40145594326269
 21
3.0825436242351079
 31
0.0
  0
LINE
  5
5B122
  8
0
 62
     0
 10
17.50089283436705
 20
3.181980515339466
 30
0.0
 11
17.50089283436705
 21
3.181980515339466
 31
0.0
  0
LINE
  5
5B123
  8
0
 62
     0
 10
17.600329725471411
 20
3.2814174064438251
 30
0.0
 11
17.600329725471411
 21
3.2814174064438251
 31
0.0
  0
LINE
  5
5B124
  8
0
 62
     0
 10
17.699766616575761
 20
3.3808542975481828
 30
0.0
 11
17.699766616575761
 21
3.3808542975481828
 31
0.0
  0
LINE
  5
5B125
  8
0
 62
     0
 10
17.799203507680119
 20
3.4802911886525409
 30
0.0
 11
17.799203507680119
 21
3.4802911886525409
 31
0.0
  0
LINE
  5
5B126
  8
0
 62
     0
 10
17.89864039878448
 20
3.5797280797568991
 30
0.0
 11
17.89864039878448
 21
3.5797280797568991
 31
0.0
  0
LINE
  5
5B127
  8
0
 62
     0
 10
17.99807728988884
 20
3.6791649708612568
 30
0.0
 11
17.99807728988884
 21
3.6791649708612568
 31
0.0
  0
LINE
  5
5B128
  8
0
 62
     0
 10
18.097514180993191
 20
3.778601861965615
 30
0.0
 11
18.097514180993191
 21
3.778601861965615
 31
0.0
  0
LINE
  5
5B129
  8
0
 62
     0
 10
18.196951072097551
 20
3.878038753069974
 30
0.0
 11
18.196951072097551
 21
3.878038753069974
 31
0.0
  0
LINE
  5
5B12A
  8
0
 62
     0
 10
18.296387963201909
 20
3.9774756441743322
 30
0.0
 11
18.296387963201909
 21
3.9774756441743322
 31
0.0
  0
LINE
  5
5B12B
  8
0
 62
     0
 10
18.395824854306259
 20
4.0769125352786899
 30
0.0
 11
18.395824854306259
 21
4.0769125352786899
 31
0.0
  0
LINE
  5
5B12C
  8
0
 62
     0
 10
18.49526174541062
 20
4.1763494263830481
 30
0.0
 11
18.49526174541062
 21
4.1763494263830481
 31
0.0
  0
LINE
  5
5B12D
  8
0
 62
     0
 10
18.59469863651498
 20
4.2757863174874071
 30
0.0
 11
18.59469863651498
 21
4.2757863174874071
 31
0.0
  0
LINE
  5
5B12E
  8
0
 62
     0
 10
18.694135527619331
 20
4.3752232085917653
 30
0.0
 11
18.694135527619331
 21
4.3752232085917653
 31
0.0
  0
LINE
  5
5B12F
  8
0
 62
     0
 10
18.793572418723691
 20
4.4746600996961234
 30
0.0
 11
18.793572418723691
 21
4.4746600996961234
 31
0.0
  0
LINE
  5
5B130
  8
0
 62
     0
 10
18.893009309828049
 20
4.5740969908004807
 30
0.0
 11
18.893009309828049
 21
4.5740969908004807
 31
0.0
  0
LINE
  5
5B131
  8
0
 62
     0
 10
18.99244620093241
 20
4.6735338819048389
 30
0.0
 11
18.99244620093241
 21
4.6735338819048389
 31
0.0
  0
LINE
  5
5B132
  8
0
 62
     0
 10
19.09188309203677
 20
4.772970773009197
 30
0.0
 11
19.09188309203677
 21
4.772970773009197
 31
0.0
  0
LINE
  5
5B133
  8
0
 62
     0
 10
19.191319983141121
 20
4.8724076641135561
 30
0.0
 11
19.191319983141121
 21
4.8724076641135561
 31
0.0
  0
LINE
  5
5B134
  8
0
 62
     0
 10
19.290756874245481
 20
4.9718445552179142
 30
0.0
 11
19.290756874245481
 21
4.9718445552179142
 31
0.0
  0
LINE
  5
5B135
  8
0
 62
     0
 10
19.390193765349839
 20
5.0712814463222724
 30
0.0
 11
19.390193765349839
 21
5.0712814463222724
 31
0.0
  0
LINE
  5
5B136
  8
0
 62
     0
 10
19.489630656454189
 20
5.1707183374266297
 30
0.0
 11
19.489630656454189
 21
5.1707183374266297
 31
0.0
  0
LINE
  5
5B137
  8
0
 62
     0
 10
19.58906754755855
 20
5.2701552285309878
 30
0.0
 11
19.58906754755855
 21
5.2701552285309878
 31
0.0
  0
LINE
  5
5B138
  8
0
 62
     0
 10
19.68850443866291
 20
5.369592119635346
 30
0.0
 11
19.68850443866291
 21
5.369592119635346
 31
0.0
  0
LINE
  5
5B139
  8
0
 62
     0
 10
19.787941329767271
 20
5.469029010739705
 30
0.0
 11
19.787941329767271
 21
5.469029010739705
 31
0.0
  0
LINE
  5
5B13A
  8
0
 62
     0
 10
19.887378220871621
 20
5.5684659018440632
 30
0.0
 11
19.887378220871621
 21
5.5684659018440632
 31
0.0
  0
LINE
  5
5B13B
  8
0
 62
     0
 10
19.986815111975979
 20
5.6679027929484214
 30
0.0
 11
19.986815111975979
 21
5.6679027929484214
 31
0.0
  0
LINE
  5
5B13C
  8
0
 62
     0
 10
20.08625200308034
 20
5.7673396840527786
 30
0.0
 11
20.08625200308034
 21
5.7673396840527786
 31
0.0
  0
LINE
  5
5B13D
  8
0
 62
     0
 10
20.1856888941847
 20
5.8667765751571368
 30
0.0
 11
20.1856888941847
 21
5.8667765751571368
 31
0.0
  0
LINE
  5
5B13E
  8
0
 62
     0
 10
20.285125785289051
 20
5.966213466261495
 30
0.0
 11
20.285125785289051
 21
5.966213466261495
 31
0.0
  0
LINE
  5
5B13F
  8
0
 62
     0
 10
20.384562676393411
 20
6.065650357365854
 30
0.0
 11
20.384562676393411
 21
6.065650357365854
 31
0.0
  0
LINE
  5
5B140
  8
0
 62
     0
 10
20.483999567497769
 20
6.1650872484702122
 30
0.0
 11
20.483999567497769
 21
6.1650872484702122
 31
0.0
  0
LINE
  5
5B141
  8
0
 62
     0
 10
20.583436458602129
 20
6.2645241395745703
 30
0.0
 11
20.583436458602129
 21
6.2645241395745703
 31
0.0
  0
LINE
  5
5B142
  8
0
 62
     0
 10
20.68287334970648
 20
6.3639610306789276
 30
0.0
 11
20.68287334970648
 21
6.3639610306789276
 31
0.0
  0
LINE
  5
5B143
  8
0
 62
     0
 10
20.78231024081084
 20
6.4633979217832858
 30
0.0
 11
20.78231024081084
 21
6.4633979217832858
 31
0.0
  0
LINE
  5
5B144
  8
0
 62
     0
 10
20.881747131915201
 20
6.5628348128876439
 30
0.0
 11
20.881747131915201
 21
6.5628348128876439
 31
0.0
  0
LINE
  5
5B145
  8
0
 62
     0
 10
20.981184023019559
 20
6.6622717039920021
 30
0.0
 11
20.981184023019559
 21
6.6622717039920021
 31
0.0
  0
LINE
  5
5B146
  8
0
 62
     0
 10
21.080620914123909
 20
6.7617085950963611
 30
0.0
 11
21.080620914123909
 21
6.7617085950963611
 31
0.0
  0
LINE
  5
5B147
  8
0
 62
     0
 10
21.18005780522827
 20
6.8611454862007193
 30
0.0
 11
21.18005780522827
 21
6.8611454862007193
 31
0.0
  0
LINE
  5
5B148
  8
0
 62
     0
 10
21.27949469633263
 20
6.9605823773050766
 30
0.0
 11
21.27949469633263
 21
6.9605823773050766
 31
0.0
  0
LINE
  5
5B149
  8
0
 62
     0
 10
21.378931587436991
 20
7.0600192684094347
 30
0.0
 11
21.378931587436991
 21
7.0600192684094347
 31
0.0
  0
LINE
  5
5B14A
  8
0
 62
     0
 10
21.478368478541341
 20
7.1594561595137929
 30
0.0
 11
21.478368478541341
 21
7.1594561595137929
 31
0.0
  0
LINE
  5
5B14B
  8
0
 62
     0
 10
17.351737497710509
 20
2.8339513964742129
 30
0.0
 11
17.351737497710509
 21
2.8339513964742129
 31
0.0
  0
LINE
  5
5B14C
  8
0
 62
     0
 10
17.45117438881487
 20
2.9333882875785711
 30
0.0
 11
17.45117438881487
 21
2.9333882875785711
 31
0.0
  0
LINE
  5
5B14D
  8
0
 62
     0
 10
17.550611279919231
 20
3.0328251786829288
 30
0.0
 11
17.550611279919231
 21
3.0328251786829288
 31
0.0
  0
LINE
  5
5B14E
  8
0
 62
     0
 10
17.650048171023592
 20
3.1322620697872869
 30
0.0
 11
17.650048171023592
 21
3.1322620697872869
 31
0.0
  0
LINE
  5
5B14F
  8
0
 62
     0
 10
17.749485062127938
 20
3.2316989608916451
 30
0.0
 11
17.749485062127938
 21
3.2316989608916451
 31
0.0
  0
LINE
  5
5B150
  8
0
 62
     0
 10
17.848921953232299
 20
3.3311358519960041
 30
0.0
 11
17.848921953232299
 21
3.3311358519960041
 31
0.0
  0
LINE
  5
5B151
  8
0
 62
     0
 10
17.94835884433666
 20
3.4305727431003619
 30
0.0
 11
17.94835884433666
 21
3.4305727431003619
 31
0.0
  0
LINE
  5
5B152
  8
0
 62
     0
 10
18.047795735441021
 20
3.53000963420472
 30
0.0
 11
18.047795735441021
 21
3.53000963420472
 31
0.0
  0
LINE
  5
5B153
  8
0
 62
     0
 10
18.147232626545371
 20
3.6294465253090782
 30
0.0
 11
18.147232626545371
 21
3.6294465253090782
 31
0.0
  0
LINE
  5
5B154
  8
0
 62
     0
 10
18.246669517649732
 20
3.7288834164134359
 30
0.0
 11
18.246669517649732
 21
3.7288834164134359
 31
0.0
  0
LINE
  5
5B155
  8
0
 62
     0
 10
18.346106408754089
 20
3.8283203075177941
 30
0.0
 11
18.346106408754089
 21
3.8283203075177941
 31
0.0
  0
LINE
  5
5B156
  8
0
 62
     0
 10
18.445543299858439
 20
3.9277571986221531
 30
0.0
 11
18.445543299858439
 21
3.9277571986221531
 31
0.0
  0
LINE
  5
5B157
  8
0
 62
     0
 10
18.5449801909628
 20
4.0271940897265113
 30
0.0
 11
18.5449801909628
 21
4.0271940897265113
 31
0.0
  0
LINE
  5
5B158
  8
0
 62
     0
 10
18.644417082067161
 20
4.1266309808308694
 30
0.0
 11
18.644417082067161
 21
4.1266309808308694
 31
0.0
  0
LINE
  5
5B159
  8
0
 62
     0
 10
18.743853973171511
 20
4.2260678719352267
 30
0.0
 11
18.743853973171511
 21
4.2260678719352267
 31
0.0
  0
LINE
  5
5B15A
  8
0
 62
     0
 10
18.843290864275868
 20
4.3255047630395849
 30
0.0
 11
18.843290864275868
 21
4.3255047630395849
 31
0.0
  0
LINE
  5
5B15B
  8
0
 62
     0
 10
18.942727755380229
 20
4.424941654143943
 30
0.0
 11
18.942727755380229
 21
4.424941654143943
 31
0.0
  0
LINE
  5
5B15C
  8
0
 62
     0
 10
19.04216464648459
 20
4.5243785452483021
 30
0.0
 11
19.04216464648459
 21
4.5243785452483021
 31
0.0
  0
LINE
  5
5B15D
  8
0
 62
     0
 10
19.141601537588951
 20
4.6238154363526602
 30
0.0
 11
19.141601537588951
 21
4.6238154363526602
 31
0.0
  0
LINE
  5
5B15E
  8
0
 62
     0
 10
19.241038428693301
 20
4.7232523274570184
 30
0.0
 11
19.241038428693301
 21
4.7232523274570184
 31
0.0
  0
LINE
  5
5B15F
  8
0
 62
     0
 10
19.340475319797662
 20
4.8226892185613757
 30
0.0
 11
19.340475319797662
 21
4.8226892185613757
 31
0.0
  0
LINE
  5
5B160
  8
0
 62
     0
 10
19.439912210902019
 20
4.9221261096657338
 30
0.0
 11
19.439912210902019
 21
4.9221261096657338
 31
0.0
  0
LINE
  5
5B161
  8
0
 62
     0
 10
19.539349102006369
 20
5.021563000770092
 30
0.0
 11
19.539349102006369
 21
5.021563000770092
 31
0.0
  0
LINE
  5
5B162
  8
0
 62
     0
 10
19.63878599311073
 20
5.120999891874451
 30
0.0
 11
19.63878599311073
 21
5.120999891874451
 31
0.0
  0
LINE
  5
5B163
  8
0
 62
     0
 10
19.738222884215091
 20
5.2204367829788092
 30
0.0
 11
19.738222884215091
 21
5.2204367829788092
 31
0.0
  0
LINE
  5
5B164
  8
0
 62
     0
 10
19.837659775319452
 20
5.3198736740831674
 30
0.0
 11
19.837659775319452
 21
5.3198736740831674
 31
0.0
  0
LINE
  5
5B165
  8
0
 62
     0
 10
19.937096666423798
 20
5.4193105651875246
 30
0.0
 11
19.937096666423798
 21
5.4193105651875246
 31
0.0
  0
LINE
  5
5B166
  8
0
 62
     0
 10
20.036533557528159
 20
5.5187474562918828
 30
0.0
 11
20.036533557528159
 21
5.5187474562918828
 31
0.0
  0
LINE
  5
5B167
  8
0
 62
     0
 10
20.13597044863252
 20
5.618184347396241
 30
0.0
 11
20.13597044863252
 21
5.618184347396241
 31
0.0
  0
LINE
  5
5B168
  8
0
 62
     0
 10
20.235407339736881
 20
5.7176212385006
 30
0.0
 11
20.235407339736881
 21
5.7176212385006
 31
0.0
  0
LINE
  5
5B169
  8
0
 62
     0
 10
20.334844230841231
 20
5.8170581296049582
 30
0.0
 11
20.334844230841231
 21
5.8170581296049582
 31
0.0
  0
LINE
  5
5B16A
  8
0
 62
     0
 10
20.434281121945592
 20
5.9164950207093163
 30
0.0
 11
20.434281121945592
 21
5.9164950207093163
 31
0.0
  0
LINE
  5
5B16B
  8
0
 62
     0
 10
20.533718013049949
 20
6.0159319118136736
 30
0.0
 11
20.533718013049949
 21
6.0159319118136736
 31
0.0
  0
LINE
  5
5B16C
  8
0
 62
     0
 10
20.63315490415431
 20
6.1153688029180318
 30
0.0
 11
20.63315490415431
 21
6.1153688029180318
 31
0.0
  0
LINE
  5
5B16D
  8
0
 62
     0
 10
20.73259179525866
 20
6.2148056940223899
 30
0.0
 11
20.73259179525866
 21
6.2148056940223899
 31
0.0
  0
LINE
  5
5B16E
  8
0
 62
     0
 10
20.832028686363021
 20
6.3142425851267481
 30
0.0
 11
20.832028686363021
 21
6.3142425851267481
 31
0.0
  0
LINE
  5
5B16F
  8
0
 62
     0
 10
20.931465577467382
 20
6.4136794762311071
 30
0.0
 11
20.931465577467382
 21
6.4136794762311071
 31
0.0
  0
LINE
  5
5B170
  8
0
 62
     0
 10
21.030902468571739
 20
6.5131163673354653
 30
0.0
 11
21.030902468571739
 21
6.5131163673354653
 31
0.0
  0
LINE
  5
5B171
  8
0
 62
     0
 10
21.130339359676089
 20
6.6125532584398226
 30
0.0
 11
21.130339359676089
 21
6.6125532584398226
 31
0.0
  0
LINE
  5
5B172
  8
0
 62
     0
 10
21.22977625078045
 20
6.7119901495441807
 30
0.0
 11
21.22977625078045
 21
6.7119901495441807
 31
0.0
  0
LINE
  5
5B173
  8
0
 62
     0
 10
17.302019052158329
 20
2.5853591687133171
 30
0.0
 11
17.302019052158329
 21
2.5853591687133171
 31
0.0
  0
LINE
  5
5B174
  8
0
 62
     0
 10
17.40145594326269
 20
2.6847960598176752
 30
0.0
 11
17.40145594326269
 21
2.6847960598176752
 31
0.0
  0
LINE
  5
5B175
  8
0
 62
     0
 10
17.50089283436705
 20
2.7842329509220329
 30
0.0
 11
17.50089283436705
 21
2.7842329509220329
 31
0.0
  0
LINE
  5
5B176
  8
0
 62
     0
 10
17.600329725471411
 20
2.8836698420263911
 30
0.0
 11
17.600329725471411
 21
2.8836698420263911
 31
0.0
  0
LINE
  5
5B177
  8
0
 62
     0
 10
17.699766616575761
 20
2.9831067331307501
 30
0.0
 11
17.699766616575761
 21
2.9831067331307501
 31
0.0
  0
LINE
  5
5B178
  8
0
 62
     0
 10
17.799203507680119
 20
3.0825436242351079
 30
0.0
 11
17.799203507680119
 21
3.0825436242351079
 31
0.0
  0
LINE
  5
5B179
  8
0
 62
     0
 10
17.89864039878448
 20
3.181980515339466
 30
0.0
 11
17.89864039878448
 21
3.181980515339466
 31
0.0
  0
LINE
  5
5B17A
  8
0
 62
     0
 10
17.99807728988884
 20
3.2814174064438242
 30
0.0
 11
17.99807728988884
 21
3.2814174064438242
 31
0.0
  0
LINE
  5
5B17B
  8
0
 62
     0
 10
18.097514180993191
 20
3.3808542975481819
 30
0.0
 11
18.097514180993191
 21
3.3808542975481819
 31
0.0
  0
LINE
  5
5B17C
  8
0
 62
     0
 10
18.196951072097551
 20
3.4802911886525401
 30
0.0
 11
18.196951072097551
 21
3.4802911886525401
 31
0.0
  0
LINE
  5
5B17D
  8
0
 62
     0
 10
18.296387963201909
 20
3.5797280797568991
 30
0.0
 11
18.296387963201909
 21
3.5797280797568991
 31
0.0
  0
LINE
  5
5B17E
  8
0
 62
     0
 10
18.395824854306259
 20
3.6791649708612568
 30
0.0
 11
18.395824854306259
 21
3.6791649708612568
 31
0.0
  0
LINE
  5
5B17F
  8
0
 62
     0
 10
18.49526174541062
 20
3.778601861965615
 30
0.0
 11
18.49526174541062
 21
3.778601861965615
 31
0.0
  0
LINE
  5
5B180
  8
0
 62
     0
 10
18.59469863651498
 20
3.8780387530699731
 30
0.0
 11
18.59469863651498
 21
3.8780387530699731
 31
0.0
  0
LINE
  5
5B181
  8
0
 62
     0
 10
18.694135527619331
 20
3.9774756441743309
 30
0.0
 11
18.694135527619331
 21
3.9774756441743309
 31
0.0
  0
LINE
  5
5B182
  8
0
 62
     0
 10
18.793572418723691
 20
4.076912535278689
 30
0.0
 11
18.793572418723691
 21
4.076912535278689
 31
0.0
  0
LINE
  5
5B183
  8
0
 62
     0
 10
18.893009309828049
 20
4.1763494263830481
 30
0.0
 11
18.893009309828049
 21
4.1763494263830481
 31
0.0
  0
LINE
  5
5B184
  8
0
 62
     0
 10
18.99244620093241
 20
4.2757863174874062
 30
0.0
 11
18.99244620093241
 21
4.2757863174874062
 31
0.0
  0
LINE
  5
5B185
  8
0
 62
     0
 10
19.09188309203677
 20
4.3752232085917644
 30
0.0
 11
19.09188309203677
 21
4.3752232085917644
 31
0.0
  0
LINE
  5
5B186
  8
0
 62
     0
 10
19.191319983141121
 20
4.4746600996961217
 30
0.0
 11
19.191319983141121
 21
4.4746600996961217
 31
0.0
  0
LINE
  5
5B187
  8
0
 62
     0
 10
19.290756874245481
 20
4.5740969908004798
 30
0.0
 11
19.290756874245481
 21
4.5740969908004798
 31
0.0
  0
LINE
  5
5B188
  8
0
 62
     0
 10
19.390193765349839
 20
4.673533881904838
 30
0.0
 11
19.390193765349839
 21
4.673533881904838
 31
0.0
  0
LINE
  5
5B189
  8
0
 62
     0
 10
19.489630656454189
 20
4.772970773009197
 30
0.0
 11
19.489630656454189
 21
4.772970773009197
 31
0.0
  0
LINE
  5
5B18A
  8
0
 62
     0
 10
19.58906754755855
 20
4.8724076641135552
 30
0.0
 11
19.58906754755855
 21
4.8724076641135552
 31
0.0
  0
LINE
  5
5B18B
  8
0
 62
     0
 10
19.68850443866291
 20
4.9718445552179134
 30
0.0
 11
19.68850443866291
 21
4.9718445552179134
 31
0.0
  0
LINE
  5
5B18C
  8
0
 62
     0
 10
19.787941329767271
 20
5.0712814463222706
 30
0.0
 11
19.787941329767271
 21
5.0712814463222706
 31
0.0
  0
LINE
  5
5B18D
  8
0
 62
     0
 10
19.887378220871621
 20
5.1707183374266288
 30
0.0
 11
19.887378220871621
 21
5.1707183374266288
 31
0.0
  0
LINE
  5
5B18E
  8
0
 62
     0
 10
19.986815111975979
 20
5.2701552285309869
 30
0.0
 11
19.986815111975979
 21
5.2701552285309869
 31
0.0
  0
LINE
  5
5B18F
  8
0
 62
     0
 10
20.08625200308034
 20
5.3695921196353451
 30
0.0
 11
20.08625200308034
 21
5.3695921196353451
 31
0.0
  0
LINE
  5
5B190
  8
0
 62
     0
 10
20.1856888941847
 20
5.4690290107397042
 30
0.0
 11
20.1856888941847
 21
5.4690290107397042
 31
0.0
  0
LINE
  5
5B191
  8
0
 62
     0
 10
20.285125785289051
 20
5.5684659018440623
 30
0.0
 11
20.285125785289051
 21
5.5684659018440623
 31
0.0
  0
LINE
  5
5B192
  8
0
 62
     0
 10
20.384562676393411
 20
5.6679027929484196
 30
0.0
 11
20.384562676393411
 21
5.6679027929484196
 31
0.0
  0
LINE
  5
5B193
  8
0
 62
     0
 10
20.483999567497769
 20
5.7673396840527777
 30
0.0
 11
20.483999567497769
 21
5.7673396840527777
 31
0.0
  0
LINE
  5
5B194
  8
0
 62
     0
 10
20.583436458602129
 20
5.8667765751571359
 30
0.0
 11
20.583436458602129
 21
5.8667765751571359
 31
0.0
  0
LINE
  5
5B195
  8
0
 62
     0
 10
20.68287334970648
 20
5.9662134662614941
 30
0.0
 11
20.68287334970648
 21
5.9662134662614941
 31
0.0
  0
LINE
  5
5B196
  8
0
 62
     0
 10
20.78231024081084
 20
6.0656503573658531
 30
0.0
 11
20.78231024081084
 21
6.0656503573658531
 31
0.0
  0
LINE
  5
5B197
  8
0
 62
     0
 10
20.881747131915201
 20
6.1650872484702113
 30
0.0
 11
20.881747131915201
 21
6.1650872484702113
 31
0.0
  0
LINE
  5
5B198
  8
0
 62
     0
 10
20.981184023019559
 20
6.2645241395745694
 30
0.0
 11
20.981184023019559
 21
6.2645241395745694
 31
0.0
  0
LINE
  5
5B199
  8
0
 62
     0
 10
17.351737497710509
 20
2.436203832056778
 30
0.0
 11
17.351737497710509
 21
2.436203832056778
 31
0.0
  0
LINE
  5
5B19A
  8
0
 62
     0
 10
17.45117438881487
 20
2.5356407231611362
 30
0.0
 11
17.45117438881487
 21
2.5356407231611362
 31
0.0
  0
LINE
  5
5B19B
  8
0
 62
     0
 10
17.550611279919231
 20
2.6350776142654939
 30
0.0
 11
17.550611279919231
 21
2.6350776142654939
 31
0.0
  0
LINE
  5
5B19C
  8
0
 62
     0
 10
17.650048171023581
 20
2.7345145053698521
 30
0.0
 11
17.650048171023581
 21
2.7345145053698521
 31
0.0
  0
LINE
  5
5B19D
  8
0
 62
     0
 10
17.749485062127938
 20
2.8339513964742098
 30
0.0
 11
17.749485062127938
 21
2.8339513964742098
 31
0.0
  0
LINE
  5
5B19E
  8
0
 62
     0
 10
17.848921953232299
 20
2.933388287578568
 30
0.0
 11
17.848921953232299
 21
2.933388287578568
 31
0.0
  0
LINE
  5
5B19F
  8
0
 62
     0
 10
17.948358844336649
 20
3.032825178682927
 30
0.0
 11
17.948358844336649
 21
3.032825178682927
 31
0.0
  0
LINE
  5
5B1A0
  8
0
 62
     0
 10
18.04779573544101
 20
3.1322620697872852
 30
0.0
 11
18.04779573544101
 21
3.1322620697872852
 31
0.0
  0
LINE
  5
5B1A1
  8
0
 62
     0
 10
18.147232626545371
 20
3.2316989608916429
 30
0.0
 11
18.147232626545371
 21
3.2316989608916429
 31
0.0
  0
LINE
  5
5B1A2
  8
0
 62
     0
 10
18.246669517649732
 20
3.331135851996001
 30
0.0
 11
18.246669517649732
 21
3.331135851996001
 31
0.0
  0
LINE
  5
5B1A3
  8
0
 62
     0
 10
18.346106408754078
 20
3.4305727431003592
 30
0.0
 11
18.346106408754078
 21
3.4305727431003592
 31
0.0
  0
LINE
  5
5B1A4
  8
0
 62
     0
 10
18.445543299858439
 20
3.5300096342047169
 30
0.0
 11
18.445543299858439
 21
3.5300096342047169
 31
0.0
  0
LINE
  5
5B1A5
  8
0
 62
     0
 10
18.5449801909628
 20
3.6294465253090751
 30
0.0
 11
18.5449801909628
 21
3.6294465253090751
 31
0.0
  0
LINE
  5
5B1A6
  8
0
 62
     0
 10
18.64441708206715
 20
3.7288834164134341
 30
0.0
 11
18.64441708206715
 21
3.7288834164134341
 31
0.0
  0
LINE
  5
5B1A7
  8
0
 62
     0
 10
18.743853973171511
 20
3.8283203075177918
 30
0.0
 11
18.743853973171511
 21
3.8283203075177918
 31
0.0
  0
LINE
  5
5B1A8
  8
0
 62
     0
 10
18.843290864275868
 20
3.92775719862215
 30
0.0
 11
18.843290864275868
 21
3.92775719862215
 31
0.0
  0
LINE
  5
5B1A9
  8
0
 62
     0
 10
18.942727755380229
 20
4.0271940897265077
 30
0.0
 11
18.942727755380229
 21
4.0271940897265077
 31
0.0
  0
LINE
  5
5B1AA
  8
0
 62
     0
 10
19.042164646484579
 20
4.1266309808308659
 30
0.0
 11
19.042164646484579
 21
4.1266309808308659
 31
0.0
  0
LINE
  5
5B1AB
  8
0
 62
     0
 10
19.14160153758894
 20
4.226067871935224
 30
0.0
 11
19.14160153758894
 21
4.226067871935224
 31
0.0
  0
LINE
  5
5B1AC
  8
0
 62
     0
 10
19.241038428693301
 20
4.3255047630395831
 30
0.0
 11
19.241038428693301
 21
4.3255047630395831
 31
0.0
  0
LINE
  5
5B1AD
  8
0
 62
     0
 10
19.340475319797662
 20
4.4249416541439412
 30
0.0
 11
19.340475319797662
 21
4.4249416541439412
 31
0.0
  0
LINE
  5
5B1AE
  8
0
 62
     0
 10
19.439912210902008
 20
4.5243785452482994
 30
0.0
 11
19.439912210902008
 21
4.5243785452482994
 31
0.0
  0
LINE
  5
5B1AF
  8
0
 62
     0
 10
19.539349102006369
 20
4.6238154363526567
 30
0.0
 11
19.539349102006369
 21
4.6238154363526567
 31
0.0
  0
LINE
  5
5B1B0
  8
0
 62
     0
 10
19.63878599311073
 20
4.7232523274570148
 30
0.0
 11
19.63878599311073
 21
4.7232523274570148
 31
0.0
  0
LINE
  5
5B1B1
  8
0
 62
     0
 10
19.738222884215091
 20
4.822689218561373
 30
0.0
 11
19.738222884215091
 21
4.822689218561373
 31
0.0
  0
LINE
  5
5B1B2
  8
0
 62
     0
 10
19.837659775319441
 20
4.9221261096657321
 30
0.0
 11
19.837659775319441
 21
4.9221261096657321
 31
0.0
  0
LINE
  5
5B1B3
  8
0
 62
     0
 10
19.937096666423798
 20
5.0215630007700902
 30
0.0
 11
19.937096666423798
 21
5.0215630007700902
 31
0.0
  0
LINE
  5
5B1B4
  8
0
 62
     0
 10
20.036533557528159
 20
5.1209998918744484
 30
0.0
 11
20.036533557528159
 21
5.1209998918744484
 31
0.0
  0
LINE
  5
5B1B5
  8
0
 62
     0
 10
20.13597044863252
 20
5.2204367829788056
 30
0.0
 11
20.13597044863252
 21
5.2204367829788056
 31
0.0
  0
LINE
  5
5B1B6
  8
0
 62
     0
 10
20.23540733973687
 20
5.3198736740831638
 30
0.0
 11
20.23540733973687
 21
5.3198736740831638
 31
0.0
  0
LINE
  5
5B1B7
  8
0
 62
     0
 10
20.334844230841231
 20
5.419310565187522
 30
0.0
 11
20.334844230841231
 21
5.419310565187522
 31
0.0
  0
LINE
  5
5B1B8
  8
0
 62
     0
 10
20.434281121945592
 20
5.518747456291881
 30
0.0
 11
20.434281121945592
 21
5.518747456291881
 31
0.0
  0
LINE
  5
5B1B9
  8
0
 62
     0
 10
20.533718013049949
 20
5.6181843473962392
 30
0.0
 11
20.533718013049949
 21
5.6181843473962392
 31
0.0
  0
LINE
  5
5B1BA
  8
0
 62
     0
 10
20.633154904154299
 20
5.7176212385005973
 30
0.0
 11
20.633154904154299
 21
5.7176212385005973
 31
0.0
  0
LINE
  5
5B1BB
  8
0
 62
     0
 10
17.50089283436705
 20
2.3864853865045981
 30
0.0
 11
17.50089283436705
 21
2.3864853865045981
 31
0.0
  0
LINE
  5
5B1BC
  8
0
 62
     0
 10
17.600329725471411
 20
2.4859222776089558
 30
0.0
 11
17.600329725471411
 21
2.4859222776089558
 31
0.0
  0
LINE
  5
5B1BD
  8
0
 62
     0
 10
17.699766616575761
 20
2.5853591687133139
 30
0.0
 11
17.699766616575761
 21
2.5853591687133139
 31
0.0
  0
LINE
  5
5B1BE
  8
0
 62
     0
 10
17.799203507680119
 20
2.6847960598176721
 30
0.0
 11
17.799203507680119
 21
2.6847960598176721
 31
0.0
  0
LINE
  5
5B1BF
  8
0
 62
     0
 10
17.89864039878448
 20
2.7842329509220312
 30
0.0
 11
17.89864039878448
 21
2.7842329509220312
 31
0.0
  0
LINE
  5
5B1C0
  8
0
 62
     0
 10
17.99807728988884
 20
2.8836698420263889
 30
0.0
 11
17.99807728988884
 21
2.8836698420263889
 31
0.0
  0
LINE
  5
5B1C1
  8
0
 62
     0
 10
18.097514180993191
 20
2.983106733130747
 30
0.0
 11
18.097514180993191
 21
2.983106733130747
 31
0.0
  0
LINE
  5
5B1C2
  8
0
 62
     0
 10
18.196951072097551
 20
3.0825436242351052
 30
0.0
 11
18.196951072097551
 21
3.0825436242351052
 31
0.0
  0
LINE
  5
5B1C3
  8
0
 62
     0
 10
18.296387963201909
 20
3.1819805153394629
 30
0.0
 11
18.296387963201909
 21
3.1819805153394629
 31
0.0
  0
LINE
  5
5B1C4
  8
0
 62
     0
 10
18.395824854306259
 20
3.2814174064438211
 30
0.0
 11
18.395824854306259
 21
3.2814174064438211
 31
0.0
  0
LINE
  5
5B1C5
  8
0
 62
     0
 10
18.49526174541062
 20
3.3808542975481801
 30
0.0
 11
18.49526174541062
 21
3.3808542975481801
 31
0.0
  0
LINE
  5
5B1C6
  8
0
 62
     0
 10
18.59469863651498
 20
3.4802911886525378
 30
0.0
 11
18.59469863651498
 21
3.4802911886525378
 31
0.0
  0
LINE
  5
5B1C7
  8
0
 62
     0
 10
18.694135527619331
 20
3.579728079756896
 30
0.0
 11
18.694135527619331
 21
3.579728079756896
 31
0.0
  0
LINE
  5
5B1C8
  8
0
 62
     0
 10
18.793572418723691
 20
3.6791649708612542
 30
0.0
 11
18.793572418723691
 21
3.6791649708612542
 31
0.0
  0
LINE
  5
5B1C9
  8
0
 62
     0
 10
18.893009309828049
 20
3.7786018619656119
 30
0.0
 11
18.893009309828049
 21
3.7786018619656119
 31
0.0
  0
LINE
  5
5B1CA
  8
0
 62
     0
 10
18.99244620093241
 20
3.87803875306997
 30
0.0
 11
18.99244620093241
 21
3.87803875306997
 31
0.0
  0
LINE
  5
5B1CB
  8
0
 62
     0
 10
19.09188309203677
 20
3.9774756441743291
 30
0.0
 11
19.09188309203677
 21
3.9774756441743291
 31
0.0
  0
LINE
  5
5B1CC
  8
0
 62
     0
 10
19.191319983141121
 20
4.0769125352786872
 30
0.0
 11
19.191319983141121
 21
4.0769125352786872
 31
0.0
  0
LINE
  5
5B1CD
  8
0
 62
     0
 10
19.290756874245481
 20
4.1763494263830454
 30
0.0
 11
19.290756874245481
 21
4.1763494263830454
 31
0.0
  0
LINE
  5
5B1CE
  8
0
 62
     0
 10
19.390193765349839
 20
4.2757863174874027
 30
0.0
 11
19.390193765349839
 21
4.2757863174874027
 31
0.0
  0
LINE
  5
5B1CF
  8
0
 62
     0
 10
19.489630656454189
 20
4.3752232085917608
 30
0.0
 11
19.489630656454189
 21
4.3752232085917608
 31
0.0
  0
LINE
  5
5B1D0
  8
0
 62
     0
 10
19.58906754755855
 20
4.474660099696119
 30
0.0
 11
19.58906754755855
 21
4.474660099696119
 31
0.0
  0
LINE
  5
5B1D1
  8
0
 62
     0
 10
19.68850443866291
 20
4.574096990800478
 30
0.0
 11
19.68850443866291
 21
4.574096990800478
 31
0.0
  0
LINE
  5
5B1D2
  8
0
 62
     0
 10
19.787941329767271
 20
4.6735338819048362
 30
0.0
 11
19.787941329767271
 21
4.6735338819048362
 31
0.0
  0
LINE
  5
5B1D3
  8
0
 62
     0
 10
19.887378220871621
 20
4.7729707730091944
 30
0.0
 11
19.887378220871621
 21
4.7729707730091944
 31
0.0
  0
LINE
  5
5B1D4
  8
0
 62
     0
 10
19.986815111975979
 20
4.8724076641135516
 30
0.0
 11
19.986815111975979
 21
4.8724076641135516
 31
0.0
  0
LINE
  5
5B1D5
  8
0
 62
     0
 10
20.08625200308034
 20
4.9718445552179098
 30
0.0
 11
20.08625200308034
 21
4.9718445552179098
 31
0.0
  0
LINE
  5
5B1D6
  8
0
 62
     0
 10
20.1856888941847
 20
5.071281446322268
 30
0.0
 11
20.1856888941847
 21
5.071281446322268
 31
0.0
  0
LINE
  5
5B1D7
  8
0
 62
     0
 10
20.285125785289051
 20
5.170718337426627
 30
0.0
 11
20.285125785289051
 21
5.170718337426627
 31
0.0
  0
LINE
  5
5B1D8
  8
0
 62
     0
 10
20.384562676393411
 20
5.2701552285309852
 30
0.0
 11
20.384562676393411
 21
5.2701552285309852
 31
0.0
  0
LINE
  5
5B1D9
  8
0
 62
     0
 10
17.550611279919231
 20
2.2373300498480622
 30
0.0
 11
17.550611279919231
 21
2.2373300498480622
 31
0.0
  0
LINE
  5
5B1DA
  8
0
 62
     0
 10
17.650048171023592
 20
2.3367669409524199
 30
0.0
 11
17.650048171023592
 21
2.3367669409524199
 31
0.0
  0
LINE
  5
5B1DB
  8
0
 62
     0
 10
17.749485062127938
 20
2.436203832056778
 30
0.0
 11
17.749485062127938
 21
2.436203832056778
 31
0.0
  0
LINE
  5
5B1DC
  8
0
 62
     0
 10
17.848921953232299
 20
2.5356407231611362
 30
0.0
 11
17.848921953232299
 21
2.5356407231611362
 31
0.0
  0
LINE
  5
5B1DD
  8
0
 62
     0
 10
17.94835884433666
 20
2.6350776142654939
 30
0.0
 11
17.94835884433666
 21
2.6350776142654939
 31
0.0
  0
LINE
  5
5B1DE
  8
0
 62
     0
 10
18.047795735441021
 20
2.7345145053698521
 30
0.0
 11
18.047795735441021
 21
2.7345145053698521
 31
0.0
  0
LINE
  5
5B1DF
  8
0
 62
     0
 10
18.147232626545371
 20
2.8339513964742111
 30
0.0
 11
18.147232626545371
 21
2.8339513964742111
 31
0.0
  0
LINE
  5
5B1E0
  8
0
 62
     0
 10
18.246669517649732
 20
2.9333882875785688
 30
0.0
 11
18.246669517649732
 21
2.9333882875785688
 31
0.0
  0
LINE
  5
5B1E1
  8
0
 62
     0
 10
18.346106408754089
 20
3.032825178682927
 30
0.0
 11
18.346106408754089
 21
3.032825178682927
 31
0.0
  0
LINE
  5
5B1E2
  8
0
 62
     0
 10
18.445543299858439
 20
3.1322620697872852
 30
0.0
 11
18.445543299858439
 21
3.1322620697872852
 31
0.0
  0
LINE
  5
5B1E3
  8
0
 62
     0
 10
18.5449801909628
 20
3.2316989608916429
 30
0.0
 11
18.5449801909628
 21
3.2316989608916429
 31
0.0
  0
LINE
  5
5B1E4
  8
0
 62
     0
 10
18.644417082067161
 20
3.331135851996001
 30
0.0
 11
18.644417082067161
 21
3.331135851996001
 31
0.0
  0
LINE
  5
5B1E5
  8
0
 62
     0
 10
18.743853973171511
 20
3.4305727431003601
 30
0.0
 11
18.743853973171511
 21
3.4305727431003601
 31
0.0
  0
LINE
  5
5B1E6
  8
0
 62
     0
 10
18.843290864275868
 20
3.5300096342047178
 30
0.0
 11
18.843290864275868
 21
3.5300096342047178
 31
0.0
  0
LINE
  5
5B1E7
  8
0
 62
     0
 10
18.942727755380229
 20
3.629446525309076
 30
0.0
 11
18.942727755380229
 21
3.629446525309076
 31
0.0
  0
LINE
  5
5B1E8
  8
0
 62
     0
 10
19.04216464648459
 20
3.7288834164134341
 30
0.0
 11
19.04216464648459
 21
3.7288834164134341
 31
0.0
  0
LINE
  5
5B1E9
  8
0
 62
     0
 10
19.141601537588951
 20
3.8283203075177918
 30
0.0
 11
19.141601537588951
 21
3.8283203075177918
 31
0.0
  0
LINE
  5
5B1EA
  8
0
 62
     0
 10
19.241038428693301
 20
3.92775719862215
 30
0.0
 11
19.241038428693301
 21
3.92775719862215
 31
0.0
  0
LINE
  5
5B1EB
  8
0
 62
     0
 10
19.340475319797662
 20
4.0271940897265086
 30
0.0
 11
19.340475319797662
 21
4.0271940897265086
 31
0.0
  0
LINE
  5
5B1EC
  8
0
 62
     0
 10
19.439912210902019
 20
4.1266309808308668
 30
0.0
 11
19.439912210902019
 21
4.1266309808308668
 31
0.0
  0
LINE
  5
5B1ED
  8
0
 62
     0
 10
19.539349102006369
 20
4.2260678719352249
 30
0.0
 11
19.539349102006369
 21
4.2260678719352249
 31
0.0
  0
LINE
  5
5B1EE
  8
0
 62
     0
 10
19.63878599311073
 20
4.3255047630395831
 30
0.0
 11
19.63878599311073
 21
4.3255047630395831
 31
0.0
  0
LINE
  5
5B1EF
  8
0
 62
     0
 10
19.738222884215091
 20
4.4249416541439421
 30
0.0
 11
19.738222884215091
 21
4.4249416541439421
 31
0.0
  0
LINE
  5
5B1F0
  8
0
 62
     0
 10
19.837659775319452
 20
4.5243785452483003
 30
0.0
 11
19.837659775319452
 21
4.5243785452483003
 31
0.0
  0
LINE
  5
5B1F1
  8
0
 62
     0
 10
19.937096666423798
 20
4.6238154363526576
 30
0.0
 11
19.937096666423798
 21
4.6238154363526576
 31
0.0
  0
LINE
  5
5B1F2
  8
0
 62
     0
 10
20.036533557528159
 20
4.7232523274570157
 30
0.0
 11
20.036533557528159
 21
4.7232523274570157
 31
0.0
  0
LINE
  5
5B1F3
  8
0
 62
     0
 10
20.13597044863252
 20
4.8226892185613739
 30
0.0
 11
20.13597044863252
 21
4.8226892185613739
 31
0.0
  0
LINE
  5
5B1F4
  8
0
 62
     0
 10
17.699766616575769
 20
2.187611604295884
 30
0.0
 11
17.699766616575769
 21
2.187611604295884
 31
0.0
  0
LINE
  5
5B1F5
  8
0
 62
     0
 10
17.799203507680119
 20
2.2870484954002421
 30
0.0
 11
17.799203507680119
 21
2.2870484954002421
 31
0.0
  0
LINE
  5
5B1F6
  8
0
 62
     0
 10
17.89864039878448
 20
2.3864853865045998
 30
0.0
 11
17.89864039878448
 21
2.3864853865045998
 31
0.0
  0
LINE
  5
5B1F7
  8
0
 62
     0
 10
17.99807728988884
 20
2.485922277608958
 30
0.0
 11
17.99807728988884
 21
2.485922277608958
 31
0.0
  0
LINE
  5
5B1F8
  8
0
 62
     0
 10
18.097514180993201
 20
2.5853591687133171
 30
0.0
 11
18.097514180993201
 21
2.5853591687133171
 31
0.0
  0
LINE
  5
5B1F9
  8
0
 62
     0
 10
18.196951072097551
 20
2.6847960598176752
 30
0.0
 11
18.196951072097551
 21
2.6847960598176752
 31
0.0
  0
LINE
  5
5B1FA
  8
0
 62
     0
 10
18.296387963201909
 20
2.7842329509220329
 30
0.0
 11
18.296387963201909
 21
2.7842329509220329
 31
0.0
  0
LINE
  5
5B1FB
  8
0
 62
     0
 10
18.395824854306269
 20
2.8836698420263911
 30
0.0
 11
18.395824854306269
 21
2.8836698420263911
 31
0.0
  0
LINE
  5
5B1FC
  8
0
 62
     0
 10
18.49526174541063
 20
2.9831067331307488
 30
0.0
 11
18.49526174541063
 21
2.9831067331307488
 31
0.0
  0
LINE
  5
5B1FD
  8
0
 62
     0
 10
18.59469863651498
 20
3.082543624235107
 30
0.0
 11
18.59469863651498
 21
3.082543624235107
 31
0.0
  0
LINE
  5
5B1FE
  8
0
 62
     0
 10
18.694135527619341
 20
3.181980515339466
 30
0.0
 11
18.694135527619341
 21
3.181980515339466
 31
0.0
  0
LINE
  5
5B1FF
  8
0
 62
     0
 10
18.793572418723699
 20
3.2814174064438242
 30
0.0
 11
18.793572418723699
 21
3.2814174064438242
 31
0.0
  0
LINE
  5
5B200
  8
0
 62
     0
 10
18.893009309828049
 20
3.3808542975481819
 30
0.0
 11
18.893009309828049
 21
3.3808542975481819
 31
0.0
  0
LINE
  5
5B201
  8
0
 62
     0
 10
18.99244620093241
 20
3.4802911886525401
 30
0.0
 11
18.99244620093241
 21
3.4802911886525401
 31
0.0
  0
LINE
  5
5B202
  8
0
 62
     0
 10
19.09188309203677
 20
3.5797280797568982
 30
0.0
 11
19.09188309203677
 21
3.5797280797568982
 31
0.0
  0
LINE
  5
5B203
  8
0
 62
     0
 10
19.191319983141131
 20
3.6791649708612559
 30
0.0
 11
19.191319983141131
 21
3.6791649708612559
 31
0.0
  0
LINE
  5
5B204
  8
0
 62
     0
 10
19.290756874245481
 20
3.7786018619656141
 30
0.0
 11
19.290756874245481
 21
3.7786018619656141
 31
0.0
  0
LINE
  5
5B205
  8
0
 62
     0
 10
19.390193765349839
 20
3.8780387530699731
 30
0.0
 11
19.390193765349839
 21
3.8780387530699731
 31
0.0
  0
LINE
  5
5B206
  8
0
 62
     0
 10
19.489630656454199
 20
3.9774756441743309
 30
0.0
 11
19.489630656454199
 21
3.9774756441743309
 31
0.0
  0
LINE
  5
5B207
  8
0
 62
     0
 10
19.58906754755856
 20
4.076912535278689
 30
0.0
 11
19.58906754755856
 21
4.076912535278689
 31
0.0
  0
LINE
  5
5B208
  8
0
 62
     0
 10
19.68850443866291
 20
4.1763494263830481
 30
0.0
 11
19.68850443866291
 21
4.1763494263830481
 31
0.0
  0
LINE
  5
5B209
  8
0
 62
     0
 10
19.787941329767271
 20
4.2757863174874062
 30
0.0
 11
19.787941329767271
 21
4.2757863174874062
 31
0.0
  0
LINE
  5
5B20A
  8
0
 62
     0
 10
19.887378220871629
 20
4.3752232085917644
 30
0.0
 11
19.887378220871629
 21
4.3752232085917644
 31
0.0
  0
LINE
  5
5B20B
  8
0
 62
     0
 10
17.84892195323231
 20
2.137893158743704
 30
0.0
 11
17.84892195323231
 21
2.137893158743704
 31
0.0
  0
LINE
  5
5B20C
  8
0
 62
     0
 10
17.94835884433666
 20
2.2373300498480622
 30
0.0
 11
17.94835884433666
 21
2.2373300498480622
 31
0.0
  0
LINE
  5
5B20D
  8
0
 62
     0
 10
18.047795735441021
 20
2.3367669409524199
 30
0.0
 11
18.047795735441021
 21
2.3367669409524199
 31
0.0
  0
LINE
  5
5B20E
  8
0
 62
     0
 10
18.147232626545382
 20
2.436203832056778
 30
0.0
 11
18.147232626545382
 21
2.436203832056778
 31
0.0
  0
LINE
  5
5B20F
  8
0
 62
     0
 10
18.246669517649739
 20
2.5356407231611362
 30
0.0
 11
18.246669517649739
 21
2.5356407231611362
 31
0.0
  0
LINE
  5
5B210
  8
0
 62
     0
 10
18.346106408754089
 20
2.6350776142654939
 30
0.0
 11
18.346106408754089
 21
2.6350776142654939
 31
0.0
  0
LINE
  5
5B211
  8
0
 62
     0
 10
18.44554329985845
 20
2.7345145053698521
 30
0.0
 11
18.44554329985845
 21
2.7345145053698521
 31
0.0
  0
LINE
  5
5B212
  8
0
 62
     0
 10
18.544980190962811
 20
2.8339513964742111
 30
0.0
 11
18.544980190962811
 21
2.8339513964742111
 31
0.0
  0
LINE
  5
5B213
  8
0
 62
     0
 10
18.644417082067172
 20
2.9333882875785688
 30
0.0
 11
18.644417082067172
 21
2.9333882875785688
 31
0.0
  0
LINE
  5
5B214
  8
0
 62
     0
 10
18.743853973171522
 20
3.032825178682927
 30
0.0
 11
18.743853973171522
 21
3.032825178682927
 31
0.0
  0
LINE
  5
5B215
  8
0
 62
     0
 10
18.843290864275879
 20
3.1322620697872852
 30
0.0
 11
18.843290864275879
 21
3.1322620697872852
 31
0.0
  0
LINE
  5
5B216
  8
0
 62
     0
 10
18.94272775538024
 20
3.2316989608916429
 30
0.0
 11
18.94272775538024
 21
3.2316989608916429
 31
0.0
  0
LINE
  5
5B217
  8
0
 62
     0
 10
19.042164646484601
 20
3.331135851996001
 30
0.0
 11
19.042164646484601
 21
3.331135851996001
 31
0.0
  0
LINE
  5
5B218
  8
0
 62
     0
 10
19.141601537588951
 20
3.4305727431003601
 30
0.0
 11
19.141601537588951
 21
3.4305727431003601
 31
0.0
  0
LINE
  5
5B219
  8
0
 62
     0
 10
19.241038428693312
 20
3.5300096342047178
 30
0.0
 11
19.241038428693312
 21
3.5300096342047178
 31
0.0
  0
LINE
  5
5B21A
  8
0
 62
     0
 10
19.340475319797669
 20
3.629446525309076
 30
0.0
 11
19.340475319797669
 21
3.629446525309076
 31
0.0
  0
LINE
  5
5B21B
  8
0
 62
     0
 10
19.439912210902019
 20
3.7288834164134341
 30
0.0
 11
19.439912210902019
 21
3.7288834164134341
 31
0.0
  0
LINE
  5
5B21C
  8
0
 62
     0
 10
19.53934910200638
 20
3.8283203075177918
 30
0.0
 11
19.53934910200638
 21
3.8283203075177918
 31
0.0
  0
LINE
  5
5B21D
  8
0
 62
     0
 10
17.99807728988884
 20
2.088174713191524
 30
0.0
 11
17.99807728988884
 21
2.088174713191524
 31
0.0
  0
LINE
  5
5B21E
  8
0
 62
     0
 10
18.097514180993201
 20
2.1876116042958822
 30
0.0
 11
18.097514180993201
 21
2.1876116042958822
 31
0.0
  0
LINE
  5
5B21F
  8
0
 62
     0
 10
18.196951072097558
 20
2.2870484954002399
 30
0.0
 11
18.196951072097558
 21
2.2870484954002399
 31
0.0
  0
LINE
  5
5B220
  8
0
 62
     0
 10
18.296387963201909
 20
2.3864853865045981
 30
0.0
 11
18.296387963201909
 21
2.3864853865045981
 31
0.0
  0
LINE
  5
5B221
  8
0
 62
     0
 10
18.395824854306269
 20
2.4859222776089558
 30
0.0
 11
18.395824854306269
 21
2.4859222776089558
 31
0.0
  0
LINE
  5
5B222
  8
0
 62
     0
 10
18.49526174541063
 20
2.5853591687133139
 30
0.0
 11
18.49526174541063
 21
2.5853591687133139
 31
0.0
  0
LINE
  5
5B223
  8
0
 62
     0
 10
18.594698636514991
 20
2.6847960598176721
 30
0.0
 11
18.594698636514991
 21
2.6847960598176721
 31
0.0
  0
LINE
  5
5B224
  8
0
 62
     0
 10
18.694135527619341
 20
2.7842329509220312
 30
0.0
 11
18.694135527619341
 21
2.7842329509220312
 31
0.0
  0
LINE
  5
5B225
  8
0
 62
     0
 10
18.793572418723699
 20
2.8836698420263889
 30
0.0
 11
18.793572418723699
 21
2.8836698420263889
 31
0.0
  0
LINE
  5
5B226
  8
0
 62
     0
 10
18.893009309828059
 20
2.983106733130747
 30
0.0
 11
18.893009309828059
 21
2.983106733130747
 31
0.0
  0
LINE
  5
5B227
  8
0
 62
     0
 10
18.99244620093242
 20
3.0825436242351052
 30
0.0
 11
18.99244620093242
 21
3.0825436242351052
 31
0.0
  0
LINE
  5
5B228
  8
0
 62
     0
 10
19.09188309203677
 20
3.1819805153394629
 30
0.0
 11
19.09188309203677
 21
3.1819805153394629
 31
0.0
  0
LINE
  5
5B229
  8
0
 62
     0
 10
19.191319983141131
 20
3.2814174064438211
 30
0.0
 11
19.191319983141131
 21
3.2814174064438211
 31
0.0
  0
LINE
  5
5B22A
  8
0
 62
     0
 10
19.290756874245488
 20
3.3808542975481801
 30
0.0
 11
19.290756874245488
 21
3.3808542975481801
 31
0.0
  0
LINE
  5
5B22B
  8
0
 62
     0
 10
18.047795735441021
 20
1.939019376534987
 30
0.0
 11
18.047795735441021
 21
1.939019376534987
 31
0.0
  0
LINE
  5
5B22C
  8
0
 62
     0
 10
18.147232626545382
 20
2.038456267639345
 30
0.0
 11
18.147232626545382
 21
2.038456267639345
 31
0.0
  0
LINE
  5
5B22D
  8
0
 62
     0
 10
18.246669517649739
 20
2.137893158743704
 30
0.0
 11
18.246669517649739
 21
2.137893158743704
 31
0.0
  0
LINE
  5
5B22E
  8
0
 62
     0
 10
18.346106408754089
 20
2.2373300498480622
 30
0.0
 11
18.346106408754089
 21
2.2373300498480622
 31
0.0
  0
LINE
  5
5B22F
  8
0
 62
     0
 10
18.44554329985845
 20
2.3367669409524199
 30
0.0
 11
18.44554329985845
 21
2.3367669409524199
 31
0.0
  0
LINE
  5
5B230
  8
0
 62
     0
 10
18.544980190962811
 20
2.436203832056778
 30
0.0
 11
18.544980190962811
 21
2.436203832056778
 31
0.0
  0
LINE
  5
5B231
  8
0
 62
     0
 10
18.644417082067172
 20
2.5356407231611362
 30
0.0
 11
18.644417082067172
 21
2.5356407231611362
 31
0.0
  0
LINE
  5
5B232
  8
0
 62
     0
 10
18.743853973171522
 20
2.6350776142654939
 30
0.0
 11
18.743853973171522
 21
2.6350776142654939
 31
0.0
  0
LINE
  5
5B233
  8
0
 62
     0
 10
18.843290864275879
 20
2.7345145053698521
 30
0.0
 11
18.843290864275879
 21
2.7345145053698521
 31
0.0
  0
LINE
  5
5B234
  8
0
 62
     0
 10
18.94272775538024
 20
2.8339513964742111
 30
0.0
 11
18.94272775538024
 21
2.8339513964742111
 31
0.0
  0
LINE
  5
5B235
  8
0
 62
     0
 10
19.042164646484601
 20
2.9333882875785688
 30
0.0
 11
19.042164646484601
 21
2.9333882875785688
 31
0.0
  0
LINE
  5
5B236
  8
0
 62
     0
 10
19.141601537588951
 20
3.032825178682927
 30
0.0
 11
19.141601537588951
 21
3.032825178682927
 31
0.0
  0
LINE
  5
5B237
  8
0
 62
     0
 10
18.196951072097558
 20
1.889300930982807
 30
0.0
 11
18.196951072097558
 21
1.889300930982807
 31
0.0
  0
LINE
  5
5B238
  8
0
 62
     0
 10
18.296387963201909
 20
1.988737822087165
 30
0.0
 11
18.296387963201909
 21
1.988737822087165
 31
0.0
  0
LINE
  5
5B239
  8
0
 62
     0
 10
18.395824854306269
 20
2.088174713191524
 30
0.0
 11
18.395824854306269
 21
2.088174713191524
 31
0.0
  0
LINE
  5
5B23A
  8
0
 62
     0
 10
18.49526174541063
 20
2.1876116042958822
 30
0.0
 11
18.49526174541063
 21
2.1876116042958822
 31
0.0
  0
LINE
  5
5B23B
  8
0
 62
     0
 10
18.594698636514991
 20
2.2870484954002399
 30
0.0
 11
18.594698636514991
 21
2.2870484954002399
 31
0.0
  0
LINE
  5
5B23C
  8
0
 62
     0
 10
18.694135527619341
 20
2.3864853865045981
 30
0.0
 11
18.694135527619341
 21
2.3864853865045981
 31
0.0
  0
LINE
  5
5B23D
  8
0
 62
     0
 10
18.793572418723699
 20
2.4859222776089558
 30
0.0
 11
18.793572418723699
 21
2.4859222776089558
 31
0.0
  0
LINE
  5
5B23E
  8
0
 62
     0
 10
18.893009309828059
 20
2.5853591687133139
 30
0.0
 11
18.893009309828059
 21
2.5853591687133139
 31
0.0
  0
LINE
  5
5B23F
  8
0
 62
     0
 10
18.99244620093242
 20
2.6847960598176721
 30
0.0
 11
18.99244620093242
 21
2.6847960598176721
 31
0.0
  0
LINE
  5
5B240
  8
0
 62
     0
 10
19.09188309203677
 20
2.7842329509220312
 30
0.0
 11
19.09188309203677
 21
2.7842329509220312
 31
0.0
  0
LINE
  5
5B241
  8
0
 62
     0
 10
19.191319983141131
 20
2.8836698420263889
 30
0.0
 11
19.191319983141131
 21
2.8836698420263889
 31
0.0
  0
LINE
  5
5B242
  8
0
 62
     0
 10
18.346106408754089
 20
1.8395824854306291
 30
0.0
 11
18.346106408754089
 21
1.8395824854306291
 31
0.0
  0
LINE
  5
5B243
  8
0
 62
     0
 10
18.44554329985845
 20
1.939019376534987
 30
0.0
 11
18.44554329985845
 21
1.939019376534987
 31
0.0
  0
LINE
  5
5B244
  8
0
 62
     0
 10
18.544980190962811
 20
2.038456267639345
 30
0.0
 11
18.544980190962811
 21
2.038456267639345
 31
0.0
  0
LINE
  5
5B245
  8
0
 62
     0
 10
18.644417082067172
 20
2.137893158743704
 30
0.0
 11
18.644417082067172
 21
2.137893158743704
 31
0.0
  0
LINE
  5
5B246
  8
0
 62
     0
 10
18.743853973171522
 20
2.2373300498480622
 30
0.0
 11
18.743853973171522
 21
2.2373300498480622
 31
0.0
  0
LINE
  5
5B247
  8
0
 62
     0
 10
18.843290864275879
 20
2.3367669409524199
 30
0.0
 11
18.843290864275879
 21
2.3367669409524199
 31
0.0
  0
LINE
  5
5B248
  8
0
 62
     0
 10
18.94272775538024
 20
2.436203832056778
 30
0.0
 11
18.94272775538024
 21
2.436203832056778
 31
0.0
  0
LINE
  5
5B249
  8
0
 62
     0
 10
19.042164646484601
 20
2.5356407231611362
 30
0.0
 11
19.042164646484601
 21
2.5356407231611362
 31
0.0
  0
LINE
  5
5B24A
  8
0
 62
     0
 10
19.141601537588951
 20
2.6350776142654939
 30
0.0
 11
19.141601537588951
 21
2.6350776142654939
 31
0.0
  0
LINE
  5
5B24B
  8
0
 62
     0
 10
18.495261745410641
 20
1.7898640398784511
 30
0.0
 11
18.495261745410641
 21
1.7898640398784511
 31
0.0
  0
LINE
  5
5B24C
  8
0
 62
     0
 10
18.594698636514991
 20
1.889300930982809
 30
0.0
 11
18.594698636514991
 21
1.889300930982809
 31
0.0
  0
LINE
  5
5B24D
  8
0
 62
     0
 10
18.694135527619348
 20
1.988737822087167
 30
0.0
 11
18.694135527619348
 21
1.988737822087167
 31
0.0
  0
LINE
  5
5B24E
  8
0
 62
     0
 10
18.793572418723709
 20
2.0881747131915258
 30
0.0
 11
18.793572418723709
 21
2.0881747131915258
 31
0.0
  0
LINE
  5
5B24F
  8
0
 62
     0
 10
18.89300930982807
 20
2.187611604295884
 30
0.0
 11
18.89300930982807
 21
2.187611604295884
 31
0.0
  0
LINE
  5
5B250
  8
0
 62
     0
 10
18.99244620093242
 20
2.2870484954002421
 30
0.0
 11
18.99244620093242
 21
2.2870484954002421
 31
0.0
  0
LINE
  5
5B251
  8
0
 62
     0
 10
19.091883092036781
 20
2.3864853865045998
 30
0.0
 11
19.091883092036781
 21
2.3864853865045998
 31
0.0
  0
LINE
  5
5B252
  8
0
 62
     0
 10
19.191319983141138
 20
2.485922277608958
 30
0.0
 11
19.191319983141138
 21
2.485922277608958
 31
0.0
  0
LINE
  5
5B253
  8
0
 62
     0
 10
18.544980190962811
 20
1.6407087032219101
 30
0.0
 11
18.544980190962811
 21
1.6407087032219101
 31
0.0
  0
LINE
  5
5B254
  8
0
 62
     0
 10
18.644417082067172
 20
1.740145594326268
 30
0.0
 11
18.644417082067172
 21
1.740145594326268
 31
0.0
  0
LINE
  5
5B255
  8
0
 62
     0
 10
18.743853973171529
 20
1.839582485430626
 30
0.0
 11
18.743853973171529
 21
1.839582485430626
 31
0.0
  0
LINE
  5
5B256
  8
0
 62
     0
 10
18.843290864275879
 20
1.9390193765349839
 30
0.0
 11
18.843290864275879
 21
1.9390193765349839
 31
0.0
  0
LINE
  5
5B257
  8
0
 62
     0
 10
18.94272775538024
 20
2.0384562676393432
 30
0.0
 11
18.94272775538024
 21
2.0384562676393432
 31
0.0
  0
LINE
  5
5B258
  8
0
 62
     0
 10
19.042164646484601
 20
2.1378931587437009
 30
0.0
 11
19.042164646484601
 21
2.1378931587437009
 31
0.0
  0
LINE
  5
5B259
  8
0
 62
     0
 10
19.141601537588961
 20
2.2373300498480591
 30
0.0
 11
19.141601537588961
 21
2.2373300498480591
 31
0.0
  0
LINE
  5
5B25A
  8
0
 62
     0
 10
18.694135527619348
 20
1.5909902576697319
 30
0.0
 11
18.694135527619348
 21
1.5909902576697319
 31
0.0
  0
LINE
  5
5B25B
  8
0
 62
     0
 10
18.793572418723709
 20
1.6904271487740901
 30
0.0
 11
18.793572418723709
 21
1.6904271487740901
 31
0.0
  0
LINE
  5
5B25C
  8
0
 62
     0
 10
18.89300930982807
 20
1.789864039878448
 30
0.0
 11
18.89300930982807
 21
1.789864039878448
 31
0.0
  0
LINE
  5
5B25D
  8
0
 62
     0
 10
18.99244620093242
 20
1.889300930982807
 30
0.0
 11
18.99244620093242
 21
1.889300930982807
 31
0.0
  0
LINE
  5
5B25E
  8
0
 62
     0
 10
19.091883092036781
 20
1.988737822087165
 30
0.0
 11
19.091883092036781
 21
1.988737822087165
 31
0.0
  0
LINE
  5
5B25F
  8
0
 62
     0
 10
19.191319983141138
 20
2.0881747131915231
 30
0.0
 11
19.191319983141138
 21
2.0881747131915231
 31
0.0
  0
LINE
  5
5B260
  8
0
 62
     0
 10
18.84329086427589
 20
1.5412718121175539
 30
0.0
 11
18.84329086427589
 21
1.5412718121175539
 31
0.0
  0
LINE
  5
5B261
  8
0
 62
     0
 10
18.94272775538025
 20
1.6407087032219121
 30
0.0
 11
18.94272775538025
 21
1.6407087032219121
 31
0.0
  0
LINE
  5
5B262
  8
0
 62
     0
 10
19.042164646484601
 20
1.7401455943262709
 30
0.0
 11
19.042164646484601
 21
1.7401455943262709
 31
0.0
  0
LINE
  5
5B263
  8
0
 62
     0
 10
19.141601537588961
 20
1.8395824854306291
 30
0.0
 11
19.141601537588961
 21
1.8395824854306291
 31
0.0
  0
LINE
  5
5B264
  8
0
 62
     0
 10
18.992446200932431
 20
1.491553366565374
 30
0.0
 11
18.992446200932431
 21
1.491553366565374
 31
0.0
  0
LINE
  5
5B265
  8
0
 62
     0
 10
19.091883092036781
 20
1.5909902576697319
 30
0.0
 11
19.091883092036781
 21
1.5909902576697319
 31
0.0
  0
LINE
  5
5B266
  8
0
 62
     0
 10
19.191319983141138
 20
1.6904271487740901
 30
0.0
 11
19.191319983141138
 21
1.6904271487740901
 31
0.0
  0
LINE
  5
5B267
  8
0
 62
     0
 10
19.141601537588961
 20
1.441834921013196
 30
0.0
 11
19.141601537588961
 21
1.441834921013196
 31
0.0
  0
LINE
  5
5B268
  8
0
 62
     0
 10
19.191319983141138
 20
1.2926795843566601
 30
0.0
 11
19.191319983141138
 21
1.2926795843566601
 31
0.0
  0
ENDBLK
  5
5B269
  8
0
  0
BLOCK
  8
0
  2
*X6
 70
     1
 10
0.0
 20
0.0
 30
0.0
  3
*X6
  1

  0
LINE
  5
5B6BC
  8
0
 62
     0
 10
23.85629192189478
 20
1.5905551520724259
 30
0.0
 11
23.85629192189478
 21
1.5905551520724259
 31
0.0
  0
LINE
  5
5B6BD
  8
0
 62
     0
 10
23.77207184723947
 20
1.506335077417116
 30
0.0
 11
23.77207184723947
 21
1.506335077417116
 31
0.0
  0
LINE
  5
5B6BE
  8
0
 62
     0
 10
23.81418188456712
 20
1.716885264055392
 30
0.0
 11
23.81418188456712
 21
1.716885264055392
 31
0.0
  0
LINE
  5
5B6BF
  8
0
 62
     0
 10
23.72996180991181
 20
1.632665189400081
 30
0.0
 11
23.72996180991181
 21
1.632665189400081
 31
0.0
  0
LINE
  5
5B6C0
  8
0
 62
     0
 10
23.6457417352565
 20
1.5484451147447711
 30
0.0
 11
23.6457417352565
 21
1.5484451147447711
 31
0.0
  0
LINE
  5
5B6C1
  8
0
 62
     0
 10
23.561521660601191
 20
1.464225040089461
 30
0.0
 11
23.561521660601191
 21
1.464225040089461
 31
0.0
  0
LINE
  5
5B6C2
  8
0
 62
     0
 10
23.85629192189478
 20
1.927435450693664
 30
0.0
 11
23.85629192189478
 21
1.927435450693664
 31
0.0
  0
LINE
  5
5B6C3
  8
0
 62
     0
 10
23.77207184723947
 20
1.8432153760383541
 30
0.0
 11
23.77207184723947
 21
1.8432153760383541
 31
0.0
  0
LINE
  5
5B6C4
  8
0
 62
     0
 10
23.68785177258416
 20
1.7589953013830439
 30
0.0
 11
23.68785177258416
 21
1.7589953013830439
 31
0.0
  0
LINE
  5
5B6C5
  8
0
 62
     0
 10
23.603631697928851
 20
1.674775226727734
 30
0.0
 11
23.603631697928851
 21
1.674775226727734
 31
0.0
  0
LINE
  5
5B6C6
  8
0
 62
     0
 10
23.519411623273541
 20
1.590555152072423
 30
0.0
 11
23.519411623273541
 21
1.590555152072423
 31
0.0
  0
LINE
  5
5B6C7
  8
0
 62
     0
 10
23.435191548618231
 20
1.5063350774171129
 30
0.0
 11
23.435191548618231
 21
1.5063350774171129
 31
0.0
  0
LINE
  5
5B6C8
  8
0
 62
     0
 10
23.81418188456712
 20
2.053765562676634
 30
0.0
 11
23.81418188456712
 21
2.053765562676634
 31
0.0
  0
LINE
  5
5B6C9
  8
0
 62
     0
 10
23.72996180991181
 20
1.9695454880213239
 30
0.0
 11
23.72996180991181
 21
1.9695454880213239
 31
0.0
  0
LINE
  5
5B6CA
  8
0
 62
     0
 10
23.6457417352565
 20
1.885325413366014
 30
0.0
 11
23.6457417352565
 21
1.885325413366014
 31
0.0
  0
LINE
  5
5B6CB
  8
0
 62
     0
 10
23.561521660601191
 20
1.801105338710703
 30
0.0
 11
23.561521660601191
 21
1.801105338710703
 31
0.0
  0
LINE
  5
5B6CC
  8
0
 62
     0
 10
23.477301585945881
 20
1.7168852640553931
 30
0.0
 11
23.477301585945881
 21
1.7168852640553931
 31
0.0
  0
LINE
  5
5B6CD
  8
0
 62
     0
 10
23.393081511290571
 20
1.632665189400083
 30
0.0
 11
23.393081511290571
 21
1.632665189400083
 31
0.0
  0
LINE
  5
5B6CE
  8
0
 62
     0
 10
23.308861436635262
 20
1.548445114744772
 30
0.0
 11
23.308861436635262
 21
1.548445114744772
 31
0.0
  0
LINE
  5
5B6CF
  8
0
 62
     0
 10
23.224641361979948
 20
1.4642250400894621
 30
0.0
 11
23.224641361979948
 21
1.4642250400894621
 31
0.0
  0
LINE
  5
5B6D0
  8
0
 62
     0
 10
23.68785177258415
 20
2.095875600004288
 30
0.0
 11
23.68785177258415
 21
2.095875600004288
 31
0.0
  0
LINE
  5
5B6D1
  8
0
 62
     0
 10
23.603631697928851
 20
2.011655525348977
 30
0.0
 11
23.603631697928851
 21
2.011655525348977
 31
0.0
  0
LINE
  5
5B6D2
  8
0
 62
     0
 10
23.51941162327353
 20
1.9274354506936671
 30
0.0
 11
23.51941162327353
 21
1.9274354506936671
 31
0.0
  0
LINE
  5
5B6D3
  8
0
 62
     0
 10
23.435191548618231
 20
1.8432153760383561
 30
0.0
 11
23.435191548618231
 21
1.8432153760383561
 31
0.0
  0
LINE
  5
5B6D4
  8
0
 62
     0
 10
23.350971473962911
 20
1.7589953013830459
 30
0.0
 11
23.350971473962911
 21
1.7589953013830459
 31
0.0
  0
LINE
  5
5B6D5
  8
0
 62
     0
 10
23.266751399307608
 20
1.674775226727736
 30
0.0
 11
23.266751399307608
 21
1.674775226727736
 31
0.0
  0
LINE
  5
5B6D6
  8
0
 62
     0
 10
23.182531324652299
 20
1.590555152072425
 30
0.0
 11
23.182531324652299
 21
1.590555152072425
 31
0.0
  0
LINE
  5
5B6D7
  8
0
 62
     0
 10
23.098311249996989
 20
1.5063350774171149
 30
0.0
 11
23.098311249996989
 21
1.5063350774171149
 31
0.0
  0
LINE
  5
5B6D8
  8
0
 62
     0
 10
23.477301585945881
 20
2.0537655626766309
 30
0.0
 11
23.477301585945881
 21
2.0537655626766309
 31
0.0
  0
LINE
  5
5B6D9
  8
0
 62
     0
 10
23.393081511290571
 20
1.969545488021321
 30
0.0
 11
23.393081511290571
 21
1.969545488021321
 31
0.0
  0
LINE
  5
5B6DA
  8
0
 62
     0
 10
23.308861436635262
 20
1.88532541336601
 30
0.0
 11
23.308861436635262
 21
1.88532541336601
 31
0.0
  0
LINE
  5
5B6DB
  8
0
 62
     0
 10
23.224641361979948
 20
1.8011053387107001
 30
0.0
 11
23.224641361979948
 21
1.8011053387107001
 31
0.0
  0
LINE
  5
5B6DC
  8
0
 62
     0
 10
23.140421287324639
 20
1.7168852640553891
 30
0.0
 11
23.140421287324639
 21
1.7168852640553891
 31
0.0
  0
LINE
  5
5B6DD
  8
0
 62
     0
 10
23.056201212669329
 20
1.632665189400079
 30
0.0
 11
23.056201212669329
 21
1.632665189400079
 31
0.0
  0
LINE
  5
5B6DE
  8
0
 62
     0
 10
22.971981138014019
 20
1.5484451147447691
 30
0.0
 11
22.971981138014019
 21
1.5484451147447691
 31
0.0
  0
LINE
  5
5B6DF
  8
0
 62
     0
 10
22.88776106335871
 20
1.4642250400894581
 30
0.0
 11
22.88776106335871
 21
1.4642250400894581
 31
0.0
  0
LINE
  5
5B6E0
  8
0
 62
     0
 10
23.350971473962911
 20
2.0958756000042889
 30
0.0
 11
23.350971473962911
 21
2.0958756000042889
 31
0.0
  0
LINE
  5
5B6E1
  8
0
 62
     0
 10
23.266751399307601
 20
2.0116555253489778
 30
0.0
 11
23.266751399307601
 21
2.0116555253489778
 31
0.0
  0
LINE
  5
5B6E2
  8
0
 62
     0
 10
23.182531324652292
 20
1.927435450693668
 30
0.0
 11
23.182531324652292
 21
1.927435450693668
 31
0.0
  0
LINE
  5
5B6E3
  8
0
 62
     0
 10
23.098311249996978
 20
1.8432153760383581
 30
0.0
 11
23.098311249996978
 21
1.8432153760383581
 31
0.0
  0
LINE
  5
5B6E4
  8
0
 62
     0
 10
23.014091175341669
 20
1.758995301383047
 30
0.0
 11
23.014091175341669
 21
1.758995301383047
 31
0.0
  0
LINE
  5
5B6E5
  8
0
 62
     0
 10
22.929871100686359
 20
1.6747752267277369
 30
0.0
 11
22.929871100686359
 21
1.6747752267277369
 31
0.0
  0
LINE
  5
5B6E6
  8
0
 62
     0
 10
22.845651026031049
 20
1.5905551520724259
 30
0.0
 11
22.845651026031049
 21
1.5905551520724259
 31
0.0
  0
LINE
  5
5B6E7
  8
0
 62
     0
 10
22.76143095137574
 20
1.506335077417116
 30
0.0
 11
22.76143095137574
 21
1.506335077417116
 31
0.0
  0
LINE
  5
5B6E8
  8
0
 62
     0
 10
23.140421287324632
 20
2.0537655626766331
 30
0.0
 11
23.140421287324632
 21
2.0537655626766331
 31
0.0
  0
LINE
  5
5B6E9
  8
0
 62
     0
 10
23.056201212669318
 20
1.9695454880213219
 30
0.0
 11
23.056201212669318
 21
1.9695454880213219
 31
0.0
  0
LINE
  5
5B6EA
  8
0
 62
     0
 10
22.971981138014009
 20
1.885325413366012
 30
0.0
 11
22.971981138014009
 21
1.885325413366012
 31
0.0
  0
LINE
  5
5B6EB
  8
0
 62
     0
 10
22.887761063358699
 20
1.8011053387107021
 30
0.0
 11
22.887761063358699
 21
1.8011053387107021
 31
0.0
  0
LINE
  5
5B6EC
  8
0
 62
     0
 10
22.803540988703389
 20
1.7168852640553911
 30
0.0
 11
22.803540988703389
 21
1.7168852640553911
 31
0.0
  0
LINE
  5
5B6ED
  8
0
 62
     0
 10
22.71932091404808
 20
1.632665189400081
 30
0.0
 11
22.71932091404808
 21
1.632665189400081
 31
0.0
  0
LINE
  5
5B6EE
  8
0
 62
     0
 10
22.63510083939277
 20
1.5484451147447711
 30
0.0
 11
22.63510083939277
 21
1.5484451147447711
 31
0.0
  0
LINE
  5
5B6EF
  8
0
 62
     0
 10
22.550880764737471
 20
1.4642250400894601
 30
0.0
 11
22.550880764737471
 21
1.4642250400894601
 31
0.0
  0
LINE
  5
5B6F0
  8
0
 62
     0
 10
23.014091175341669
 20
2.0958756000042889
 30
0.0
 11
23.014091175341669
 21
2.0958756000042889
 31
0.0
  0
LINE
  5
5B6F1
  8
0
 62
     0
 10
22.929871100686359
 20
2.0116555253489792
 30
0.0
 11
22.929871100686359
 21
2.0116555253489792
 31
0.0
  0
LINE
  5
5B6F2
  8
0
 62
     0
 10
22.845651026031049
 20
1.927435450693668
 30
0.0
 11
22.845651026031049
 21
1.927435450693668
 31
0.0
  0
LINE
  5
5B6F3
  8
0
 62
     0
 10
22.76143095137574
 20
1.8432153760383581
 30
0.0
 11
22.76143095137574
 21
1.8432153760383581
 31
0.0
  0
LINE
  5
5B6F4
  8
0
 62
     0
 10
22.67721087672043
 20
1.7589953013830479
 30
0.0
 11
22.67721087672043
 21
1.7589953013830479
 31
0.0
  0
LINE
  5
5B6F5
  8
0
 62
     0
 10
22.59299080206512
 20
1.6747752267277369
 30
0.0
 11
22.59299080206512
 21
1.6747752267277369
 31
0.0
  0
LINE
  5
5B6F6
  8
0
 62
     0
 10
22.508770727409811
 20
1.590555152072427
 30
0.0
 11
22.508770727409811
 21
1.590555152072427
 31
0.0
  0
LINE
  5
5B6F7
  8
0
 62
     0
 10
22.424550652754501
 20
1.5063350774171169
 30
0.0
 11
22.424550652754501
 21
1.5063350774171169
 31
0.0
  0
LINE
  5
5B6F8
  8
0
 62
     0
 10
22.803540988703389
 20
2.0537655626766309
 30
0.0
 11
22.803540988703389
 21
2.0537655626766309
 31
0.0
  0
LINE
  5
5B6F9
  8
0
 62
     0
 10
22.71932091404808
 20
1.969545488021321
 30
0.0
 11
22.71932091404808
 21
1.969545488021321
 31
0.0
  0
LINE
  5
5B6FA
  8
0
 62
     0
 10
22.63510083939277
 20
1.88532541336601
 30
0.0
 11
22.63510083939277
 21
1.88532541336601
 31
0.0
  0
LINE
  5
5B6FB
  8
0
 62
     0
 10
22.550880764737471
 20
1.8011053387107001
 30
0.0
 11
22.550880764737471
 21
1.8011053387107001
 31
0.0
  0
LINE
  5
5B6FC
  8
0
 62
     0
 10
22.466660690082151
 20
1.71688526405539
 30
0.0
 11
22.466660690082151
 21
1.71688526405539
 31
0.0
  0
LINE
  5
5B6FD
  8
0
 62
     0
 10
22.382440615426852
 20
1.632665189400079
 30
0.0
 11
22.382440615426852
 21
1.632665189400079
 31
0.0
  0
LINE
  5
5B6FE
  8
0
 62
     0
 10
22.298220540771531
 20
1.5484451147447691
 30
0.0
 11
22.298220540771531
 21
1.5484451147447691
 31
0.0
  0
LINE
  5
5B6FF
  8
0
 62
     0
 10
22.214000466116229
 20
1.464225040089459
 30
0.0
 11
22.214000466116229
 21
1.464225040089459
 31
0.0
  0
LINE
  5
5B700
  8
0
 62
     0
 10
22.67721087672043
 20
2.095875600004288
 30
0.0
 11
22.67721087672043
 21
2.095875600004288
 31
0.0
  0
LINE
  5
5B701
  8
0
 62
     0
 10
22.59299080206512
 20
2.0116555253489778
 30
0.0
 11
22.59299080206512
 21
2.0116555253489778
 31
0.0
  0
LINE
  5
5B702
  8
0
 62
     0
 10
22.508770727409811
 20
1.9274354506936671
 30
0.0
 11
22.508770727409811
 21
1.9274354506936671
 31
0.0
  0
LINE
  5
5B703
  8
0
 62
     0
 10
22.424550652754501
 20
1.8432153760383569
 30
0.0
 11
22.424550652754501
 21
1.8432153760383569
 31
0.0
  0
LINE
  5
5B704
  8
0
 62
     0
 10
22.340330578099191
 20
1.758995301383047
 30
0.0
 11
22.340330578099191
 21
1.758995301383047
 31
0.0
  0
LINE
  5
5B705
  8
0
 62
     0
 10
22.256110503443882
 20
1.674775226727736
 30
0.0
 11
22.256110503443882
 21
1.674775226727736
 31
0.0
  0
LINE
  5
5B706
  8
0
 62
     0
 10
22.466660690082151
 20
2.0537655626766349
 30
0.0
 11
22.466660690082151
 21
2.0537655626766349
 31
0.0
  0
LINE
  5
5B707
  8
0
 62
     0
 10
22.382440615426841
 20
1.9695454880213239
 30
0.0
 11
22.382440615426841
 21
1.9695454880213239
 31
0.0
  0
LINE
  5
5B708
  8
0
 62
     0
 10
22.298220540771531
 20
1.885325413366014
 30
0.0
 11
22.298220540771531
 21
1.885325413366014
 31
0.0
  0
LINE
  5
5B709
  8
0
 62
     0
 10
22.214000466116222
 20
1.8011053387107041
 30
0.0
 11
22.214000466116222
 21
1.8011053387107041
 31
0.0
  0
LINE
  5
5B70A
  8
0
 62
     0
 10
22.340330578099191
 20
2.0958756000042889
 30
0.0
 11
22.340330578099191
 21
2.0958756000042889
 31
0.0
  0
LINE
  5
5B70B
  8
0
 62
     0
 10
22.256110503443882
 20
2.0116555253489778
 30
0.0
 11
22.256110503443882
 21
2.0116555253489778
 31
0.0
  0
ENDBLK
  5
5B70D
  8
0
  0
BLOCK
  8
0
  2
*U7
 70
     1
 10
0.0
 20
0.0
 30
0.0
  3
*U7
  1

  0
TEXT
  5
5B70F
  8
DIM
 10
5.1060242279461407
 20
2.6745996973576371
 30
0.0
 40
0.375
  1
8 1/4"
  7
SMOOTH
  0
ENDBLK
  5
5B711
  8
0
  0
BLOCK
  8
0
  2
*U8
 70
     1
 10
0.0
 20
0.0
 30
0.0
  3
*U8
  1

  0
TEXT
  5
5B713
  8
DIM
 10
6.1060242279461407
 20
8.1211359400404266
 30
0.0
 40
0.375
  1
6 1/4"
  7
SMOOTH
  0
ENDBLK
  5
5B715
  8
0
  0
BLOCK
  8
0
  2
*U9
 70
     1
 10
0.0
 20
0.0
 30
0.0
  3
*U9
  1

  0
TEXT
  5
5B717
  8
DIM
 10
2.4342727878428141
 20
8.1162955867795574
 30
0.0
 40
0.375
  1
2"
  7
SMOOTH
  0
ENDBLK
  5
5B719
  8
0
  0
ENDSEC
  0
SECTION
  2
ENTITIES
  0
INSERT
  5
51B16
  8
TITLE2
 66
     1
  2
TITLEBLOCK2018
 10
40.299137625798359
 20
-0.368738953933554
 30
0.0
 41
1.2704551658838901
 42
1.2704551658838901
 43
1.2704551658838901
  0
ATTRIB
  5
51B17
  8
TITLE2
 10
30.067990854615239
 20
25.80919179455293
 30
0.0
 40
0.4632958342066138
  1
SL4 STD. MOD.
 41
0.8005305039787987
  7
GGATT
  2
DWG1
 70
     0
  0
ATTRIB
  5
51B18
  8
TITLE2
 10
30.067990854615239
 20
25.03703207087527
 30
0.0
 40
0.4632958342066138
  1
SLOPED SILL UNIT
 41
0.8005305039787987
  7
GGATT
  2
DWG2
 70
     0
  0
ATTRIB
  5
51B19
  8
TITLE2
 10
30.067990854615239
 20
23.493774379231301
 30
0.0
 40
0.4632958342066183
  1

 41
0.8005305039787907
  7
GGATT
  2
PROJ1
 70
     0
  0
ATTRIB
  5
51B1A
  8
TITLE2
 10
30.067990854615239
 20
22.72161465555364
 30
0.0
 40
0.4632958342066183
  1

 41
0.8005305039787907
  7
GGATT
  2
PROJ2
 70
     0
  0
ATTRIB
  5
51B1B
  8
TITLE2
 10
31.101005428584511
 20
21.804083328208879
 30
0.0
 40
0.3088638894710952
  1
1 of 1
 41
0.8005305039787947
  7
GGATT
  2
PAGE
 70
     0
  0
ATTRIB
  5
51B1C
  8
TITLE2
 10
34.395844001882672
 20
21.804083328208879
 30
0.0
 40
0.3088638894710952
  1
3 JAN 17
 41
0.8005305039787943
  7
GGATT
  2
DATE
 70
     0
  0
ATTRIB
  5
51B1D
  8
TITLE2
 10
32.093064818921853
 20
20.87749165979567
 30
0.0
 40
0.3088638894710974
  1

 41
0.8005305039787886
  7
GGATT
  2
ARCH
 70
     0
  0
ATTRIB
  5
51B1E
  8
TITLE2
 10
32.093064818921853
 20
19.950899991382439
 30
0.0
 40
0.3088638894710974
  1

 41
0.8005305039787886
  7
GGATT
  2
CUST
 70
     0
  0
ATTRIB
  5
51B1F
  8
TITLE2
 10
32.093064818921853
 20
19.024308322969201
 30
0.0
 40
0.3088638894710974
  1

 41
0.8005305039787886
  7
GGATT
  2
REP
 70
     0
  0
ATTRIB
  5
51B20
  8
TITLE2
 10
32.505156427420403
 20
18.097716654555981
 30
0.0
 40
0.3088638894710974
  1

 41
0.8005305039787886
  7
GGATT
  2
OFFICE
 70
     0
  0
ATTRIB
  5
51B21
  8
TITLE2
 10
31.615514151070379
 20
17.171124986142772
 30
0.0
 40
0.3088638894710974
  1

 41
0.8005305039787959
  7
GGATT
  2
PLANT
 70
     0
  0
ATTRIB
  5
51B22
  8
TITLE2
 10
30.270001027255979
 20
15.73571595856416
 30
0.0
 40
0.4625545608718605
  1

 41
0.800530503978797
  7
GGATT
  2
BRICK
 70
     0
  0
ATTRIB
  5
51B23
  8
TITLE2
 10
31.949636631990359
 20
14.967203469697481
 30
0.0
 40
0.3088638894710974
  1

 41
0.8005305039787963
  7
GGATT
  2
PROCESS
 70
     0
  0
ATTRIB
  5
51B24
  8
TITLE2
 10
34.422186282981613
 20
14.967203469697481
 30
0.0
 40
0.3088638894710974
  1

 41
0.8005305039787959
  7
GGATT
  2
BURN
 70
     0
  0
ATTRIB
  5
51B25
  8
TITLE2
 10
31.615514151070379
 20
14.040611801284269
 30
0.0
 40
0.3088638894710974
  1

 41
0.8005305039787959
  7
GGATT
  2
TEXT
 70
     0
  0
ATTRIB
  5
51B26
  8
TITLE2
 10
34.088063802061612
 20
13.114020132871049
 30
0.0
 40
0.3088638894710999
  1
3
 41
0.8005305039787897
  7
GGATT
  2
FACE
 70
     0
  0
ATTRIB
  5
51B27
  8
TITLE2
 10
31.615514151070379
 20
11.26083679604465
 30
0.0
 40
0.3088638894710987
  1
PLANT OPTION
 41
0.8005305039787929
  7
GGATT
  2
CORING
 70
     0
  0
ATTRIB
  5
51B28
  8
TITLE2
 10
31.20342254257185
 20
10.33424512763143
 30
0.0
 40
0.3088638894710987
  1
STD. MOD.
 41
0.8005305039787929
  7
GGATT
  2
SIZE
 70
     0
  0
ATTRIB
  5
51B29
  8
TITLE2
 10
34.500155410560147
 20
10.33424512763143
 30
0.0
 40
0.3088638894710987
  1

 41
0.8005305039787929
  7
GGATT
  2
BOND
 70
     0
  0
ATTRIB
  5
51B2A
  8
TITLE2
 10
33.440434945066833
 20
9.4076534592182206
 30
0.0
 40
0.3088638894710951
  1
C216, FBS, SW
 41
0.8005305039787941
  7
GGATT
  2
ASTM
 70
     0
  0
ATTRIB
  5
51B2B
  8
TITLE2
 10
33.460257763123401
 20
8.4810617908050023
 30
0.0
 40
0.3088638894710952
  1
SL4-STDMOD
 41
0.8005305039787943
  7
GGATT
  2
FILE
 70
     0
  0
ATTRIB
  5
51B2C
  8
TITLE2
 10
32.521719513955802
 20
7.5544701223917894
 30
0.0
 40
0.3088638894710952
  1
KEVIN LINDSTROM
 41
0.8005305039787947
  7
GGATT
  2
BY
 70
     0
  0
ATTRIB
  5
51B2D
  8
TITLE2
 10
33.237480490129343
 20
12.149143663161411
 30
0.0
 40
0.3088638894710974
  1
PLANT OPTION
 41
0.8005305039787959
  7
GGATT
  2
TEXTURE
 70
     0
  0
SEQEND
  5
51B2E
  8
TITLE2
  0
INSERT
  5
51B2F
  8
OBJ
  6
CONTINUOUS
  2
*X6
 10
0.0
 20
0.0
 30
0.0
1001
GRADIENTCOLOR1ACI
1070
     5
1001
GRADIENTCOLOR2ACI
1070
     2
1001
ACAD
1000
HATCH
1002
{
1070
    19
1000
DOTS
1040
1.9056827488258341
1040
0.7853981633974483
1000
R14_HATCH_DATA
1000
51B2F
1011
1.0
1021
0.0
1031
0.0
1021
0.0
1031
0.0
1011
0.0
1021
0.0
1031
0.0
1021
1.0
1031
0.0
1011
0.0
1021
0.0
1031
0.0
1021
0.0
1031
1.0
1040
0.0
1010
0.0
1020
0.0
1030
0.9999999999999998
1000
DOTS
1070
     0
1070
     0
1071
        1
1071
        7
1070
     0
1070
     1
1071
        4
1040
23.871684938411839
1040
2.1365674417527809
1040
22.17244110646801
1040
2.1365674417527809
1040
22.17244110646801
1040
1.442613846611321
1040
23.871684938411839
1040
1.442613846611321
1071
        0
1070
     0
1070
     1
1040
0.7853981633974483
1040
1.9056827488258341
1070
     0
1070
     1
1040
0.785398163397448
1040
32.74150979803003
1040
-10.91612593424118
1040
-0.0421100373276552
1040
0.1263301119829657
1070
     2
1040
0.0
1040
-0.1191051718016145
1040
0.0086172707574623
1071
        1
1040
23.003512521455558
1040
1.8522797438257701
1040
0.0
1002
}
  0
LINE
  5
51B30
  8
TITLE2
 10
22.17244110646801
 20
2.1365674417527818
 30
0.0
 11
22.17244110646801
 21
1.4426138466113221
 31
0.0
  0
LINE
  5
51B31
  8
TITLE2
 10
22.17244110646801
 20
1.4426138466113221
 30
0.0
 11
23.871684938411839
 21
1.4426138466113221
 31
0.0
  0
LINE
  5
51B32
  8
TITLE2
 10
23.871684938411839
 20
1.4426138466113221
 30
0.0
 11
23.871684938411839
 21
2.1365674417527818
 31
0.0
  0
LINE
  5
51B33
  8
TITLE2
 10
23.871684938411839
 20
2.1365674417527818
 30
0.0
 11
22.17244110646801
 21
2.1365674417527818
 31
0.0
  0
TEXT
  5
51B34
  8
TITLE
 10
24.074359119718231
 20
1.627071301985584
 30
0.0
 40
0.3261602672814436
  1
INDICATES FINISHED FACES
 41
0.8005305039787876
  7
SIMPLEX
  0
LINE
  5
55CA4
  8
CON
 10
-80.999979050039215
 20
6.7338687097799124
 30
0.0
 11
-80.999979050039215
 21
25.70419905461047
 31
0.0
  0
LINE
  5
55CA5
  8
CON
 10
-86.999979050039215
 20
6.7338687097799124
 30
0.0
 11
-86.999979050039215
 21
25.760962874162828
 31
0.0
  0
LINE
  5
55CA6
  8
CON
 10
-87.517617140244269
 20
4.8020170572017804
 30
0.0
 11
-87.517617140244269
 21
25.87449042840575
 31
0.0
  0
LINE
  5
55CA7
  8
CON
 10
-91.019098260542123
 20
5.7402360956984486
 30
0.0
 11
-91.019098260542123
 21
25.760962874162828
 31
0.0
  0
LINE
  5
55CA8
  8
CON
 10
-91.019098260542123
 20
5.7402360956984486
 30
0.0
 11
-80.999979050039244
 21
5.7402360956984424
 31
0.0
  0
LINE
  5
55CA9
  8
CON
 10
-87.517617140244269
 20
4.8020170572017804
 30
0.0
 11
-80.999979050039244
 21
4.8020170572017733
 31
0.0
  0
LINE
  5
55CAA
  8
CON
 10
-67.499459448723499
 20
7.0986883288336173
 30
0.0
 11
-68.365484852507933
 21
6.5986883288336173
 31
0.0
  0
LINE
  5
55CAB
  8
CON
 10
-68.365484852507933
 20
6.5986883288336173
 30
0.0
 11
-77.025738890352343
 21
11.59868832883361
 31
0.0
  0
LINE
  5
55CAC
  8
CON
 10
-67.499459448723499
 20
7.0986883288336173
 30
0.0
 11
-69.177383668555862
 21
6.1299383288336173
 31
0.0
  0
LINE
  5
55CAD
  8
CON
 10
-69.177383668555862
 20
6.1299383288336173
 30
0.0
 11
-74.806548793154704
 21
9.3799383288336173
 31
0.0
  0
LINE
  5
55CAE
  8
CON
 10
-125.0207618698566
 20
-41.831375165701779
 30
0.0
 11
-125.0207618698566
 21
-27.190467635172372
 31
0.0
  0
LINE
  5
55CAF
  8
CON
 10
-132.95261352243469
 20
-41.313737075496739
 30
0.0
 11
-132.95261352243469
 21
-27.190467635172372
 31
0.0
  0
LINE
  5
55CB0
  8
CON
 10
-131.02076186985661
 20
-41.831375165701779
 30
0.0
 11
-131.02076186985661
 21
-27.190467635172372
 31
0.0
  0
LINE
  5
55CB1
  8
CON
 10
-132.95261352243469
 20
-41.313737075496739
 30
0.0
 11
-125.0207618698566
 21
-41.313737075496732
 31
0.0
  0
LINE
  5
55CB2
  8
CON
 10
-112.515388895611
 20
-36.999853863175971
 30
0.0
 11
-112.94840159750321
 21
-36.749853863175971
 31
0.0
  0
LINE
  5
55CB3
  8
CON
 10
-112.94840159750321
 20
-36.749853863175971
 30
0.0
 11
-119.8224782400422
 21
-40.718603863175971
 31
0.0
  0
LINE
  5
55CB5
  8
CON
 10
-83.213967168554788
 20
3.2948038592841291
 30
0.0
 11
-83.213967168554788
 21
17.935711389813552
 31
0.0
  0
LINE
  5
55CB6
  8
CON
 10
-91.145818821132949
 20
3.8124419494891759
 30
0.0
 11
-91.145818821132934
 21
17.935711389813552
 31
0.0
  0
LINE
  5
55CB7
  8
CON
 10
-89.213967168554817
 20
3.2948038592841291
 30
0.0
 11
-89.213967168554817
 21
17.935711389813552
 31
0.0
  0
LINE
  5
55CB8
  8
CON
 10
-91.145818821132949
 20
3.8124419494891759
 30
0.0
 11
-83.213967168554788
 21
3.812441949489183
 31
0.0
  0
LINE
  5
55CB9
  8
CON
 10
-70.708594194309256
 20
8.1263251618099517
 30
0.0
 11
-71.14160689620148
 21
8.3763251618099517
 31
0.0
  0
LINE
  5
55CBA
  8
CON
 10
-71.14160689620148
 20
8.3763251618099517
 30
0.0
 11
-78.015683538740461
 21
4.4075751618099508
 31
0.0
  0
LINE
  5
56930
  8
CON
 10
-81.673883490473102
 20
7.1321061316835994
 30
0.0
 11
-81.673883490473102
 21
26.102436476514161
 31
0.0
  0
LINE
  5
56931
  8
CON
 10
-87.673883490473102
 20
7.1321061316835994
 30
0.0
 11
-87.673883490473102
 21
26.159200296066519
 31
0.0
  0
LINE
  5
56932
  8
CON
 10
-88.191521580678156
 20
5.2002544791054666
 30
0.0
 11
-88.191521580678156
 21
26.27272785030944
 31
0.0
  0
LINE
  5
56933
  8
CON
 10
-91.693002700975995
 20
6.1384735176021357
 30
0.0
 11
-91.693002700975995
 21
26.159200296066519
 31
0.0
  0
LINE
  5
56934
  8
CON
 10
-91.693002700975995
 20
6.1384735176021357
 30
0.0
 11
-81.673883490473116
 21
6.1384735176021286
 31
0.0
  0
LINE
  5
56935
  8
CON
 10
-88.191521580678156
 20
5.2002544791054666
 30
0.0
 11
-81.673883490473116
 21
5.2002544791054603
 31
0.0
  0
LINE
  5
56936
  8
CON
 10
-68.173363889157386
 20
7.4969257507373044
 30
0.0
 11
-69.039389292941834
 21
6.9969257507373044
 31
0.0
  0
LINE
  5
56937
  8
CON
 10
-69.039389292941834
 20
6.9969257507373044
 30
0.0
 11
-77.69964333078623
 21
11.996925750737301
 31
0.0
  0
LINE
  5
56938
  8
CON
 10
-68.173363889157386
 20
7.4969257507373044
 30
0.0
 11
-69.851288108989749
 21
6.5281757507373044
 31
0.0
  0
LINE
  5
56939
  8
CON
 10
-69.851288108989749
 20
6.5281757507373044
 30
0.0
 11
-75.480453233588591
 21
9.7781757507373044
 31
0.0
  0
LINE
  5
5693A
  8
CON
 10
-125.6946663102904
 20
-41.433137743798099
 30
0.0
 11
-125.6946663102904
 21
-26.792230213268681
 31
0.0
  0
LINE
  5
5693B
  8
CON
 10
-133.6265179628686
 20
-40.915499653593052
 30
0.0
 11
-133.6265179628686
 21
-26.792230213268681
 31
0.0
  0
LINE
  5
5693C
  8
CON
 10
-131.69466631029039
 20
-41.433137743798099
 30
0.0
 11
-131.69466631029039
 21
-26.792230213268681
 31
0.0
  0
LINE
  5
5693D
  8
CON
 10
-133.6265179628686
 20
-40.915499653593052
 30
0.0
 11
-125.6946663102904
 21
-40.915499653593052
 31
0.0
  0
LINE
  5
5693E
  8
CON
 10
-113.1892933360449
 20
-36.601616441272277
 30
0.0
 11
-113.62230603793709
 21
-36.351616441272277
 31
0.0
  0
LINE
  5
5693F
  8
CON
 10
-113.62230603793709
 20
-36.351616441272277
 30
0.0
 11
-120.4963826804761
 21
-40.320366441272277
 31
0.0
  0
LINE
  5
56941
  8
CON
 10
-83.887871608988689
 20
3.693041281187817
 30
0.0
 11
-83.887871608988689
 21
18.333948811717239
 31
0.0
  0
LINE
  5
56942
  8
CON
 10
-91.819723261566836
 20
4.210679371392863
 30
0.0
 11
-91.819723261566821
 21
18.333948811717239
 31
0.0
  0
LINE
  5
56943
  8
CON
 10
-89.887871608988689
 20
3.693041281187817
 30
0.0
 11
-89.887871608988689
 21
18.333948811717239
 31
0.0
  0
LINE
  5
56944
  8
CON
 10
-91.819723261566836
 20
4.210679371392863
 30
0.0
 11
-83.887871608988689
 21
4.2106793713928701
 31
0.0
  0
LINE
  5
56945
  8
CON
 10
-71.382498634743143
 20
8.5245625837136387
 30
0.0
 11
-71.815511336635353
 21
8.7745625837136387
 31
0.0
  0
LINE
  5
56946
  8
CON
 10
-71.815511336635353
 20
8.7745625837136387
 30
0.0
 11
-78.689587979174348
 21
4.8058125837136378
 31
0.0
  0
LINE
  5
57005
  8
CON
 10
-7.7505428132983454
 20
5.0791033331704512
 30
0.0
 11
-7.7505428132983516
 21
24.3233099798768
 31
0.0
  0
LINE
  5
57006
  8
CON
 10
-12.433855676452421
 20
2.993958104219808
 30
0.0
 11
-12.433855676452421
 21
24.3233099798768
 31
0.0
  0
LINE
  5
57007
  8
CON
 10
-0.1255428132983454
 20
5.0791033331704467
 30
0.0
 11
-0.1255428132983454
 21
23.17999392463085
 31
0.0
  0
LINE
  5
57008
  8
CON
 10
-12.433855676452421
 20
2.993958104219808
 30
0.0
 11
-0.1255428132983454
 21
2.9939581042198058
 31
0.0
  0
LINE
  5
57009
  8
CON
 10
-9.0496266304000699
 20
1.6948742871180991
 30
0.0
 11
-9.0496266304000699
 21
24.3233099798768
 31
0.0
  0
LINE
  5
5700A
  8
CON
 10
-9.0496266304000699
 20
1.6948742871180991
 30
0.0
 11
-0.1255428132983489
 21
1.6948742871180991
 31
0.0
  0
LINE
  5
5700B
  8
CON
 10
15.71345996877889
 20
5.3299261204413986
 30
0.0
 11
13.927282573473491
 21
4.2986761204413986
 31
0.0
  0
LINE
  5
5700C
  8
CON
 10
13.927282573473491
 20
4.2986761204413986
 30
0.0
 11
3.2643447893775881
 21
10.454926120441399
 31
0.0
  0
LINE
  5
5700D
  8
CON
 10
15.71345996877889
 20
5.3299261204413986
 30
0.0
 11
12.79062423100641
 21
3.642426120441399
 31
0.0
  0
LINE
  5
5700E
  8
CON
 10
12.79062423100641
 20
3.642426120441399
 30
0.0
 11
5.0505221846829933
 21
8.1111761204413995
 31
0.0
  0
LINE
  5
58CE3
  8
CON
 10
-51.916957685343803
 20
24.151538765419641
 30
0.0
 11
-51.916957685343803
 21
7.1564772545767834
 31
0.0
  0
LINE
  5
58CE4
  8
CON
 10
-50.088459780961159
 20
27.339065296041269
 30
0.0
 11
-50.088459780961159
 21
10.791082971222581
 31
0.0
  0
LINE
  5
58CE5
  8
CON
 10
-48.274365201107429
 20
28.86253279890164
 30
0.0
 11
-48.274365201107429
 21
10.3534173292557
 31
0.0
  0
LINE
  5
58CE6
  8
CON
 10
-42.559550169580142
 20
28.86253279890164
 30
0.0
 11
-42.559550169580142
 21
9.1654676820747323
 31
0.0
  0
LINE
  5
58CE7
  8
CON
 10
-40.745455589726419
 20
27.339065296041269
 30
0.0
 11
-40.745455589726419
 21
8.102565313613395
 31
0.0
  0
LINE
  5
58CE8
  8
CON
 10
-45.41695768534376
 20
30.151538765419641
 30
0.0
 11
-45.41695768534376
 21
8.5402310665456991
 31
0.0
  0
LINE
  5
58CE9
  8
CON
 10
-40.745455589726419
 20
27.33906529604128
 30
0.0
 11
-27.953016893379449
 21
27.339065296041259
 31
0.0
  0
LINE
  5
58CEA
  8
CON
 10
-42.559550169580142
 20
28.86253279890165
 30
0.0
 11
-27.953016893379449
 21
28.862532798901629
 31
0.0
  0
LINE
  5
58CEB
  8
CON
 10
-38.916957685343817
 20
24.151538765419641
 30
0.0
 11
-27.953016893379459
 21
24.151538765419641
 31
0.0
  0
LINE
  5
58CEC
  8
CON
 10
-38.916957685343817
 20
24.651538765426469
 30
0.0
 11
-27.953016893379459
 21
24.65153876541963
 31
0.0
  0
LINE
  5
58CED
  8
CON
 10
-17.29209543672491
 20
14.124387365855281
 30
0.0
 11
-17.29209543672491
 21
26.969112264051262
 31
0.0
  0
LINE
  5
58CEE
  8
CON
 10
-8.8301982438947277
 20
10.499387365855281
 30
0.0
 11
-8.8301982438947277
 21
25.601538322365741
 31
0.0
  0
LINE
  5
58CEF
  8
CON
 10
-16.455198243894731
 20
10.499387365855281
 30
0.0
 11
-16.455198243894731
 21
25.601538322365741
 31
0.0
  0
LINE
  5
58CF0
  8
TEMPLATE
 10
-101.913461160819
 20
44.336307848492382
 30
0.0
 11
-106.788461160819
 21
44.336307848492382
 31
0.0
  0
LINE
  5
58CF1
  8
TEMPLATE
 10
-106.788461160819
 20
44.336307848492382
 30
0.0
 11
-106.788461160819
 21
40.711307848492382
 31
0.0
  0
LINE
  5
58CF2
  8
TEMPLATE
 10
-106.788461160819
 20
40.711307848492382
 30
0.0
 11
-99.163461160819054
 21
40.711307848492382
 31
0.0
  0
LINE
  5
58CF3
  8
TEMPLATE
 10
-101.913461160819
 20
44.336307848492382
 30
0.0
 11
-101.913461160819
 21
43.836307848492382
 31
0.0
  0
ARC
  5
58CF4
  8
TEMPLATE
 10
-101.913461160819
 20
41.086307848492382
 30
0.0
 40
2.75
 50
0.0
 51
90.0
  0
LINE
  5
58CF5
  8
TEMPLATE
 10
-99.163461160819054
 20
40.711307848492382
 30
0.0
 11
-99.163461160819054
 21
41.086307848492382
 31
0.0
  0
TEXT
  5
58CF6
  8
TEMPLATE
 10
-104.4997396741754
 20
43.163533608139332
 30
0.0
 40
0.375
  1
W11-R
  7
SMOOTH
 72
     1
 11
-103.6880888589581
 21
43.351033608139339
 31
0.0
 73
     2
  0
TEXT
  5
58CF7
  8
TEMPLATE
 10
-105.0651693616754
 20
42.54051245948645
 30
0.0
 40
0.375
  1
TEMPLATE
  7
SMOOTH
 72
     1
 11
-103.6880888589581
 21
42.72801245948645
 31
0.0
 73
     2
  0
TEXT
  5
58CF8
  8
TEMPLATE
 10
-105.2680820654798
 20
41.249968651562597
 30
0.0
 40
0.375
  1
GREEN SIZE
  7
SMOOTH
 72
     1
 11
-103.6880888589581
 21
41.437468651562597
 31
0.0
 73
     2
  0
LINE
  5
58CF9
  8
CON
 10
13.80826862392364
 20
15.06453829093399
 30
0.0
 11
13.80826862392364
 21
27.528863296774659
 31
0.0
  0
LINE
  5
58CFA
  8
CON
 10
15.04809164347922
 20
11.658152540585069
 30
0.0
 11
15.04809164347922
 21
27.480629727363151
 31
0.0
  0
LINE
  5
58CFB
  8
CON
 10
-60.18351842497735
 20
16.087603558615012
 30
0.0
 11
-60.18351842497735
 21
31.773291134445099
 31
0.0
  0
LINE
  5
58CFC
  8
CON
 10
-60.824883272705449
 20
17.981977104697918
 30
0.0
 11
-60.824883272705449
 21
31.773291134445099
 31
0.0
  0
LINE
  5
58CFD
  8
CON
 10
-54.18351842497735
 20
16.087603558615012
 30
0.0
 11
-54.18351842497735
 21
31.773291134445099
 31
0.0
  0
LINE
  5
58CFE
  8
CON
 10
-60.824883272705449
 20
17.981977104697918
 30
0.0
 11
-54.183518424977358
 21
17.981977104697918
 31
0.0
  0
LINE
  5
58CFF
  8
CON
 10
-43.324046544587901
 20
20.00682170811724
 30
0.0
 11
-44.947844176683716
 21
20.94432170811724
 31
0.0
  0
LINE
  5
58D00
  8
CON
 10
-44.947844176683716
 20
20.94432170811724
 30
0.0
 11
-50.685262476755632
 21
17.631821708117229
 31
0.0
  0
LINE
  5
5A9F8
  8
CON
 10
-90.420780870086219
 20
3.9582882048510539
 30
0.0
 11
-90.420780870086219
 21
19.729708554727779
 31
0.0
  0
LINE
  5
5A9F9
  8
CON
 10
-92.98404295188746
 20
6.5215502866522819
 30
0.0
 11
-85.569829389514368
 21
6.5215502866522819
 31
0.0
  0
LINE
  5
5A9FA
  8
CON
 10
-82.795780870086205
 20
7.5832882048510539
 30
0.0
 11
-82.795780870086205
 21
19.729708554727779
 31
0.0
  0
LINE
  5
5A9FB
  8
CON
 10
-92.98404295188746
 20
6.5215502866522819
 30
0.0
 11
-92.98404295188746
 21
20.87875707415591
 31
0.0
  0
LINE
  5
5A9FE
  8
CON
 10
-40.959234375892542
 20
1.1899545954383079
 30
0.0
 11
-40.959234375892549
 21
20.434161242144661
 31
0.0
  0
LINE
  5
5A9FF
  8
CON
 10
-45.642547239046607
 20
-0.8951906335123336
 30
0.0
 11
-45.642547239046621
 21
20.434161242144661
 31
0.0
  0
LINE
  5
5AA00
  8
CON
 10
-33.334234375892542
 20
1.1899545954383051
 30
0.0
 11
-33.334234375892542
 21
19.290845186898711
 31
0.0
  0
LINE
  5
5AA01
  8
CON
 10
-45.642547239046607
 20
-0.8951906335123336
 30
0.0
 11
-33.334234375892542
 21
-0.8951906335123357
 31
0.0
  0
LINE
  5
5AA02
  8
CON
 10
-42.25831819299426
 20
-2.194274450614043
 30
0.0
 11
-42.25831819299426
 21
20.434161242144661
 31
0.0
  0
LINE
  5
5AA03
  8
CON
 10
-42.25831819299426
 20
-2.194274450614043
 30
0.0
 11
-33.334234375892549
 21
-2.194274450614043
 31
0.0
  0
LINE
  5
5AA04
  8
CON
 10
-17.495231593815301
 20
1.440777382709256
 30
0.0
 11
-19.281408989120699
 21
0.409527382709257
 31
0.0
  0
LINE
  5
5AA05
  8
CON
 10
-19.281408989120699
 20
0.409527382709257
 30
0.0
 11
-29.944346773216608
 21
6.5657773827092551
 31
0.0
  0
LINE
  5
5AA06
  8
CON
 10
-17.495231593815301
 20
1.440777382709256
 30
0.0
 11
-20.418067331587778
 21
-0.2467226172907431
 31
0.0
  0
LINE
  5
5AA07
  8
CON
 10
-20.418067331587778
 20
-0.2467226172907431
 30
0.0
 11
-28.158169377911211
 21
4.222027382709256
 31
0.0
  0
LINE
  5
5AA08
  8
TEMPLATE
 10
-3.136995787719882
 20
29.46919717184603
 30
0.0
 11
-8.3869957877198829
 21
29.46919717184603
 31
0.0
  0
LINE
  5
5AA09
  8
TEMPLATE
 10
-8.3869957877198829
 20
29.46919717184603
 30
0.0
 11
-8.3869957877198829
 21
25.84419717184603
 31
0.0
  0
LINE
  5
5AA0A
  8
TEMPLATE
 10
-8.3869957877198829
 20
25.84419717184603
 30
0.0
 11
-0.7619957877198829
 21
25.84419717184603
 31
0.0
  0
LINE
  5
5AA0B
  8
TEMPLATE
 10
-0.7619957877198829
 20
25.84419717184603
 30
0.0
 11
-0.7619957877198829
 21
27.09419717184603
 31
0.0
  0
LINE
  5
5AA0C
  8
TEMPLATE
 10
-0.7619957877198829
 20
27.09419717184603
 30
0.0
 11
-3.136995787719882
 21
29.46919717184603
 31
0.0
  0
TEXT
  5
5AA0D
  8
TEMPLATE
 10
-5.9446838695653881
 20
28.284863976907701
 30
0.0
 40
0.375
  1
W9-R
  7
SMOOTH
 72
     1
 11
-5.2781162744566918
 21
28.472363976907701
 31
0.0
 73
     2
  0
TEXT
  5
5AA0E
  8
TEMPLATE
 10
-6.6551967771740843
 20
27.661842828254819
 30
0.0
 40
0.375
  1
TEMPLATE
  7
SMOOTH
 72
     1
 11
-5.2781162744566918
 21
27.849342828254819
 31
0.0
 73
     2
  0
TEXT
  5
5AA0F
  8
TEMPLATE
 10
-6.8581094809784311
 20
26.371299020330969
 30
0.0
 40
0.375
  1
GREEN SIZE
  7
SMOOTH
 72
     1
 11
-5.2781162744566918
 21
26.558799020330969
 31
0.0
 73
     2
  0
CIRCLE
  5
5AA10
  8
CON
 10
-220.4313238604083
 20
72.449139897936973
 30
0.0
 40
89.999999999993236
  0
LINE
  5
5B34A
  8
CON
 10
5.468229763980502
 20
-42.797660876870239
 30
0.0
 11
5.468229763980502
 21
-28.156753346340821
 31
0.0
  0
LINE
  5
5B34B
  8
CON
 10
-2.4636218885976429
 20
-42.280022786665192
 30
0.0
 11
-2.4636218885976362
 21
-28.156753346340821
 31
0.0
  0
LINE
  5
5B34C
  8
CON
 10
-0.5317702360195044
 20
-42.797660876870239
 30
0.0
 11
-0.5317702360195044
 21
-28.156753346340821
 31
0.0
  0
LINE
  5
5B34D
  8
CON
 10
-2.4636218885976429
 20
-42.280022786665192
 30
0.0
 11
5.468229763980502
 21
-42.280022786665178
 31
0.0
  0
LINE
  5
5B34E
  8
CON
 10
17.973602738226042
 20
-37.966139574344417
 30
0.0
 11
17.540590036333821
 21
-37.716139574344417
 31
0.0
  0
LINE
  5
5B34F
  8
CON
 10
17.540590036333821
 20
-37.716139574344417
 30
0.0
 11
10.66651339379484
 21
-41.68488957434441
 31
0.0
  0
LINE
  5
5B3EE
  8
OBJ
 10
3.6613872579515099
 20
25.084032618929761
 30
0.0
 11
1.6613872579515101
 21
25.084032618929761
 31
0.0
  0
LINE
  5
5B3EF
  8
OBJ
 10
1.6613872579515101
 20
25.084032618929761
 30
0.0
 11
1.6613872579515101
 21
21.957508455327289
 31
0.0
  0
LINE
  5
5B3F0
  8
OBJ
 10
9.8815035892451206
 20
16.86391628763614
 30
0.0
 11
9.8815035892451206
 21
18.86391628763614
 31
0.0
  0
LINE
  5
5B3F1
  8
OBJ
 10
9.8815035892451206
 20
18.86391628763614
 30
0.0
 11
3.6613872579515099
 21
25.084032618929761
 31
0.0
  0
LINE
  5
5B3F2
  8
OBJ
 10
9.8815035892451206
 20
16.86391628763614
 30
0.0
 11
6.7549794256426523
 21
16.86391628763614
 31
0.0
  0
LINE
  5
5B3F3
  8
OBJ
 10
6.7549794256426523
 20
16.86391628763614
 30
0.0
 11
1.6613872579515101
 21
21.957508455327289
 31
0.0
  0
LINE
  5
5B3F4
  8
OBJ
 10
23.139535832426571
 20
16.86391628763614
 30
0.0
 11
20.889535832426571
 21
16.86391628763614
 31
0.0
  0
LINE
  5
5B3F5
  8
OBJ
 10
23.139535832426571
 20
16.86391628763614
 30
0.0
 11
23.139535832426571
 21
18.86391628763614
 31
0.0
  0
LINE
  5
5B3F6
  8
OBJ
 10
20.889535832426571
 20
16.86391628763614
 30
0.0
 11
20.889535832426571
 21
25.084032618929761
 31
0.0
  0
LINE
  5
5B3F7
  8
OBJ
 10
23.139535832426571
 20
18.86391628763614
 30
0.0
 11
20.889535832426571
 21
18.86391628763614
 31
0.0
  0
LINE
  5
5B3F8
  8
OBJ
 10
20.889535832426571
 20
25.084032618929761
 30
0.0
 11
23.139535832426571
 21
25.084032618929761
 31
0.0
  0
LINE
  5
5B3F9
  8
OBJ
 10
23.139535832426571
 20
18.86391628763614
 30
0.0
 11
23.139535832426571
 21
25.084032618929761
 31
0.0
  0
LINE
  5
5B3FA
  8
OBJ
 10
9.8815035892451206
 20
4.5510314714359659
 30
0.0
 11
1.6613872579515101
 21
4.551031471435965
 31
0.0
  0
LINE
  5
5B3FB
  8
OBJ
 10
1.6613872579515101
 20
6.8010314714359659
 30
0.0
 11
1.6613872579515101
 21
4.551031471435965
 31
0.0
  0
LINE
  5
5B3FC
  8
OBJ
 10
3.6613872579515099
 20
6.8010314714359659
 30
0.0
 11
3.6613872579515032
 21
4.551031471435965
 31
0.0
  0
LINE
  5
5B3FD
  8
OBJ
 10
9.8815035892451206
 20
6.801031471435965
 30
0.0
 11
1.6613872579515101
 21
6.8010314714359659
 31
0.0
  0
LINE
  5
5B3FE
  8
DIM
 10
3.6613872579515099
 20
25.271532618929751
 30
0.0
 11
3.6613872579515099
 21
27.03951396056334
 31
0.0
  0
LINE
  5
5B3FF
  8
DIM
 10
1.6613872579515101
 20
25.271532618929751
 30
0.0
 11
1.6613872579515101
 21
27.03951396056334
 31
0.0
  0
LINE
  5
5B400
  8
DIM
 10
3.4113872579515099
 20
26.859513960563341
 30
0.0
 11
2.9746015436657909
 21
26.859513960563341
 31
0.0
  0
LINE
  5
5B401
  8
DIM
 10
1.9113872579515101
 20
26.859513960563341
 30
0.0
 11
2.3481729722372222
 21
26.859513960563341
 31
0.0
  0
SOLID
  5
5B402
  8
DIM
 10
3.4113872579515099
 20
26.901180627230008
 30
0.0
 11
3.4113872579515099
 21
26.81784729389668
 31
0.0
 12
3.6613872579515099
 22
26.859513960563341
 32
0.0
 13
3.6613872579515099
 23
26.859513960563341
 33
0.0
  0
SOLID
  5
5B403
  8
DIM
 10
1.9113872579515101
 20
26.901180627230008
 30
0.0
 11
1.9113872579515101
 21
26.81784729389668
 31
0.0
 12
1.6613872579515101
 22
26.859513960563341
 32
0.0
 13
1.6613872579515101
 23
26.859513960563341
 33
0.0
  0
TEXT
  5
5B404
  8
DIM
 10
2.423700437299336
 20
26.672013960563341
 30
0.0
 40
0.375
  1
2"
  7
SMOOTH
 72
     1
 11
2.6613872579515099
 21
26.859513960563341
 31
0.0
 73
     2
  0
LINE
  5
5B406
  8
DIM
 10
20.889535832426571
 20
25.271532618929761
 30
0.0
 11
20.889535832426571
 21
27.03951396056334
 31
0.0
  0
LINE
  5
5B407
  8
DIM
 10
23.139535832426571
 20
25.271532618929761
 30
0.0
 11
23.139535832426571
 21
27.03951396056334
 31
0.0
  0
LINE
  5
5B408
  8
DIM
 10
20.639535832426571
 20
26.859513960563341
 30
0.0
 11
20.389535832426571
 21
26.859513960563341
 31
0.0
  0
LINE
  5
5B409
  8
DIM
 10
23.389535832426571
 20
26.859513960563341
 30
0.0
 11
23.639535832426571
 21
26.859513960563341
 31
0.0
  0
SOLID
  5
5B40A
  8
DIM
 10
20.639535832426571
 20
26.901180627230008
 30
0.0
 11
20.639535832426571
 21
26.817847293896669
 31
0.0
 12
20.889535832426571
 22
26.859513960563341
 32
0.0
 13
20.889535832426571
 23
26.859513960563341
 33
0.0
  0
SOLID
  5
5B40B
  8
DIM
 10
23.389535832426571
 20
26.901180627230008
 30
0.0
 11
23.389535832426571
 21
26.817847293896669
 31
0.0
 12
23.139535832426571
 22
26.859513960563341
 32
0.0
 13
23.139535832426571
 23
26.859513960563341
 33
0.0
  0
TEXT
  5
5B40C
  8
DIM
 10
23.819194018870459
 20
26.672013960563341
 30
0.0
 40
0.375
  1
2 1/4"
  7
SMOOTH
 72
     1
 11
24.492003122131329
 21
26.859513960563341
 31
0.0
 73
     2
  0
LINE
  5
5B40D
  8
DIM
 10
6.7549794256426523
 20
16.67641628763614
 30
0.0
 11
6.7549794256426523
 21
14.890479145119469
 31
0.0
  0
LINE
  5
5B40F
  8
DIM
 10
9.8815035892451206
 20
16.67641628763614
 30
0.0
 11
9.8815035892451206
 21
14.890479145119469
 31
0.0
  0
LINE
  5
5B410
  8
DIM
 10
7.0049794256426523
 20
15.070479145119471
 30
0.0
 11
7.5516604317383758
 21
15.070479145119471
 31
0.0
  0
LINE
  5
5B411
  8
DIM
 10
9.6315035892451206
 20
15.070479145119471
 30
0.0
 11
9.1355941416740691
 21
15.070479145119471
 31
0.0
  0
SOLID
  5
5B412
  8
DIM
 10
7.0049794256426523
 20
15.11214581178614
 30
0.0
 11
7.0049794256426523
 21
15.02881247845281
 31
0.0
 12
6.7549794256426523
 22
15.070479145119471
 32
0.0
 13
6.7549794256426523
 23
15.070479145119471
 33
0.0
  0
SOLID
  5
5B413
  8
DIM
 10
9.6315035892451206
 20
15.11214581178614
 30
0.0
 11
9.6315035892451206
 21
15.02881247845281
 31
0.0
 12
9.8815035892451206
 22
15.070479145119471
 32
0.0
 13
9.8815035892451206
 23
15.070479145119471
 33
0.0
  0
TEXT
  5
5B414
  8
DIM
 10
7.6454324041830244
 20
14.882979145119471
 30
0.0
 40
0.375
  1
3 1/8"
  7
SMOOTH
 72
     1
 11
8.3182415074438936
 21
15.070479145119471
 31
0.0
 73
     2
  0
LINE
  5
5B41D
  8
DIM
 10
10.069003589245121
 20
18.86391628763614
 30
0.0
 11
12.260405903942249
 21
18.86391628763614
 31
0.0
  0
LINE
  5
5B41F
  8
DIM
 10
10.069003589245121
 20
16.86391628763614
 30
0.0
 11
12.260405903942249
 21
16.86391628763614
 31
0.0
  0
LINE
  5
5B420
  8
DIM
 10
12.08040590394225
 20
18.61391628763614
 30
0.0
 11
12.08040590394225
 21
18.14141628763614
 31
0.0
  0
LINE
  5
5B421
  8
DIM
 10
12.08040590394225
 20
17.11391628763614
 30
0.0
 11
12.08040590394225
 21
17.586416287636141
 31
0.0
  0
SOLID
  5
5B422
  8
DIM
 10
12.038739237275591
 20
18.61391628763614
 30
0.0
 11
12.12207257060893
 21
18.61391628763614
 31
0.0
 12
12.08040590394225
 22
18.86391628763614
 32
0.0
 13
12.08040590394225
 23
18.86391628763614
 33
0.0
  0
SOLID
  5
5B423
  8
DIM
 10
12.038739237275591
 20
17.11391628763614
 30
0.0
 11
12.12207257060893
 21
17.11391628763614
 31
0.0
 12
12.08040590394225
 22
16.86391628763614
 32
0.0
 13
12.08040590394225
 23
16.86391628763614
 33
0.0
  0
TEXT
  5
5B424
  8
DIM
 10
11.842719083290079
 20
17.67641628763614
 30
0.0
 40
0.375
  1
2"
  7
SMOOTH
 72
     1
 11
12.08040590394225
 21
17.86391628763613
 31
0.0
 73
     2
  0
LINE
  5
5B425
  8
DIM
 10
23.327035832426571
 20
18.86391628763614
 30
0.0
 11
25.059597051641241
 21
18.86391628763614
 31
0.0
  0
LINE
  5
5B427
  8
DIM
 10
23.327035832426571
 20
16.86391628763614
 30
0.0
 11
25.059597051641241
 21
16.86391628763614
 31
0.0
  0
LINE
  5
5B428
  8
DIM
 10
24.879597051641241
 20
18.61391628763614
 30
0.0
 11
24.879597051641241
 21
18.14141628763614
 31
0.0
  0
LINE
  5
5B429
  8
DIM
 10
24.879597051641241
 20
17.11391628763614
 30
0.0
 11
24.879597051641241
 21
17.58641628763613
 31
0.0
  0
SOLID
  5
5B42A
  8
DIM
 10
24.83793038497458
 20
18.61391628763614
 30
0.0
 11
24.921263718307909
 21
18.61391628763614
 31
0.0
 12
24.879597051641241
 22
18.86391628763614
 32
0.0
 13
24.879597051641241
 23
18.86391628763614
 33
0.0
  0
SOLID
  5
5B42B
  8
DIM
 10
24.83793038497458
 20
17.11391628763614
 30
0.0
 11
24.921263718307909
 21
17.11391628763614
 31
0.0
 12
24.879597051641241
 22
16.86391628763614
 32
0.0
 13
24.879597051641241
 23
16.86391628763614
 33
0.0
  0
TEXT
  5
5B42C
  8
DIM
 10
24.641910230989058
 20
17.67641628763614
 30
0.0
 40
0.375
  1
2"
  7
SMOOTH
 72
     1
 11
24.879597051641241
 21
17.86391628763613
 31
0.0
 73
     2
  0
LINE
  5
5B42D
  8
DIM
 10
1.4738872579515101
 20
6.8010314714359659
 30
0.0
 11
-0.724656945039115
 21
6.8010314714359659
 31
0.0
  0
LINE
  5
5B42E
  8
DIM
 10
1.4738872579515101
 20
4.551031471435965
 30
0.0
 11
-0.724656945039115
 21
4.551031471435965
 31
0.0
  0
LINE
  5
5B42F
  8
DIM
 10
-0.5446569450391153
 20
6.5510314714359659
 30
0.0
 11
-0.5446569450391153
 21
5.9535314714359657
 31
0.0
  0
LINE
  5
5B430
  8
DIM
 10
-0.5446569450391153
 20
4.801031471435965
 30
0.0
 11
-0.5446569450391153
 21
5.398531471435966
 31
0.0
  0
SOLID
  5
5B431
  8
DIM
 10
-0.5863236117057867
 20
6.5510314714359659
 30
0.0
 11
-0.502990278372451
 21
6.5510314714359659
 31
0.0
 12
-0.5446569450391153
 22
6.8010314714359659
 32
0.0
 13
-0.5446569450391153
 23
6.8010314714359659
 33
0.0
  0
SOLID
  5
5B432
  8
DIM
 10
-0.5863236117057867
 20
4.801031471435965
 30
0.0
 11
-0.502990278372451
 21
4.801031471435965
 31
0.0
 12
-0.5446569450391153
 22
4.551031471435965
 32
0.0
 13
-0.5446569450391153
 23
4.551031471435965
 33
0.0
  0
TEXT
  5
5B433
  8
DIM
 10
-1.2174660482999839
 20
5.4885314714359659
 30
0.0
 40
0.375
  1
2 1/4"
  7
SMOOTH
 72
     1
 11
-0.5446569450391153
 21
5.6760314714359659
 31
0.0
 73
     2
  0
LINE
  5
5B434
  8
OBJ
 10
17.967336923177569
 20
11.609564375136189
 30
0.0
 11
17.967336923177569
 21
14.734564375136189
 31
0.0
  0
LINE
  5
5B435
  8
OBJ
 10
17.967336923177569
 20
14.734564375136189
 30
0.0
 11
19.699387730746459
 21
13.7345643751362
 31
0.0
  0
LINE
  5
5B436
  8
OBJ
 10
25.00379332892614
 20
4.5470643751361939
 30
0.0
 11
19.699387730746459
 21
13.7345643751362
 31
0.0
  0
LINE
  5
5B437
  8
OBJ
 10
25.00379332892614
 20
4.5470643751361939
 30
0.0
 11
25.00379332892614
 21
2.5470643751361939
 31
0.0
  0
LINE
  5
5B438
  8
OBJ
 10
25.00379332892614
 20
2.5470643751361939
 30
0.0
 11
22.297463942099771
 21
4.1095643751361939
 31
0.0
  0
LINE
  5
5B439
  8
OBJ
 10
22.297463942099771
 20
4.1095643751361939
 30
0.0
 11
17.967336923177569
 21
11.6095643751362
 31
0.0
  0
LINE
  5
5B43A
  8
OBJ
 10
17.967336923177569
 20
14.734564375136189
 30
0.0
 11
19.91589408169256
 21
15.859564375136189
 31
0.0
  0
LINE
  5
5B43B
  8
OBJ
 10
19.91589408169256
 20
15.859564375136189
 30
0.0
 11
21.647944889261449
 21
14.8595643751362
 31
0.0
  0
LINE
  5
5B43C
  8
OBJ
 10
21.647944889261449
 20
14.8595643751362
 30
0.0
 11
19.699387730746459
 21
13.7345643751362
 31
0.0
  0
LINE
  5
5B43D
  8
OBJ
 10
26.95235048744113
 20
5.6720643751361939
 30
0.0
 11
21.647944889261449
 21
14.8595643751362
 31
0.0
  0
LINE
  5
5B43E
  8
OBJ
 10
26.95235048744113
 20
5.6720643751361939
 30
0.0
 11
26.95235048744113
 21
3.6720643751361939
 31
0.0
  0
LINE
  5
5B43F
  8
OBJ
 10
26.95235048744113
 20
5.6720643751361939
 30
0.0
 11
25.00379332892614
 21
4.5470643751361939
 31
0.0
  0
LINE
  5
5B440
  8
OBJ
 10
26.95235048744113
 20
3.6720643751361939
 30
0.0
 11
25.00379332892614
 21
2.5470643751361939
 31
0.0
  0
LINE
  5
5B441
  8
OBJ
 10
9.8815035892451206
 20
6.801031471435965
 30
0.0
 11
9.8815035892451206
 21
4.5510314714359659
 31
0.0
  0
LINE
  5
5B443
  8
DIM
 10
3.926552300896466
 20
25.084032618929761
 30
0.0
 11
12.26040590394226
 21
25.084032618929761
 31
0.0
  0
LINE
  5
5B444
  8
DIM
 10
12.08040590394225
 20
19.11391628763613
 30
0.0
 11
12.08040590394225
 21
21.696474453282949
 31
0.0
  0
LINE
  5
5B445
  8
DIM
 10
12.08040590394225
 20
24.834032618929761
 30
0.0
 11
12.08040590394225
 21
22.251474453282938
 31
0.0
  0
SOLID
  5
5B446
  8
DIM
 10
12.038739237275591
 20
19.11391628763613
 30
0.0
 11
12.12207257060893
 21
19.11391628763613
 31
0.0
 12
12.08040590394225
 22
18.86391628763614
 32
0.0
 13
12.08040590394225
 23
18.86391628763614
 33
0.0
  0
SOLID
  5
5B447
  8
DIM
 10
12.038739237275591
 20
24.834032618929761
 30
0.0
 11
12.12207257060893
 21
24.834032618929761
 31
0.0
 12
12.08040590394225
 22
25.084032618929761
 32
0.0
 13
12.08040590394225
 23
25.084032618929761
 33
0.0
  0
TEXT
  5
5B448
  8
DIM
 10
11.407596800681381
 20
21.786474453282938
 30
0.0
 40
0.375
  1
6 1/4"
  7
SMOOTH
 72
     1
 11
12.08040590394225
 21
21.973974453282949
 31
0.0
 73
     2
  0
LINE
  5
5B44A
  8
DIM
 10
9.8815035892451206
 20
19.129081330581091
 30
0.0
 11
9.8815035892451206
 21
27.03951396056334
 31
0.0
  0
LINE
  5
5B44B
  8
DIM
 10
3.9113872579515099
 20
26.859513960563341
 30
0.0
 11
5.877587935910916
 21
26.859513960563341
 31
0.0
  0
LINE
  5
5B44C
  8
DIM
 10
9.6315035892451206
 20
26.859513960563341
 30
0.0
 11
7.5643031411725508
 21
26.859513960563341
 31
0.0
  0
SOLID
  5
5B44D
  8
DIM
 10
3.9113872579515099
 20
26.901180627230008
 30
0.0
 11
3.9113872579515099
 21
26.817847293896669
 31
0.0
 12
3.6613872579515099
 22
26.859513960563341
 32
0.0
 13
3.6613872579515099
 23
26.859513960563341
 33
0.0
  0
SOLID
  5
5B44E
  8
DIM
 10
9.6315035892451206
 20
26.901180627230008
 30
0.0
 11
9.6315035892451206
 21
26.817847293896669
 31
0.0
 12
9.8815035892451206
 22
26.859513960563341
 32
0.0
 13
9.8815035892451206
 23
26.859513960563341
 33
0.0
  0
TEXT
  5
5B44F
  8
DIM
 10
6.0986363203374463
 20
26.672013960563341
 30
0.0
 40
0.375
  1
6 1/4"
  7
SMOOTH
 72
     1
 11
6.7714454235983146
 21
26.859513960563341
 31
0.0
 73
     2
  0
LINE
  5
5B450
  8
DIM
 10
1.4738872579515101
 20
25.084032618929761
 30
0.0
 11
-0.750899179598072
 21
25.084032618929761
 31
0.0
  0
LINE
  5
5B451
  8
DIM
 10
1.4738872579515101
 20
21.957508455327289
 30
0.0
 11
-0.750899179598072
 21
21.957508455327289
 31
0.0
  0
LINE
  5
5B452
  8
DIM
 10
-0.5708991795980724
 20
24.834032618929761
 30
0.0
 11
-0.5708991795980724
 21
23.79827053712852
 31
0.0
  0
LINE
  5
5B453
  8
DIM
 10
-0.5708991795980724
 20
22.207508455327289
 30
0.0
 11
-0.5708991795980724
 21
23.24327053712852
 31
0.0
  0
SOLID
  5
5B454
  8
DIM
 10
-0.6125658462647367
 20
24.834032618929761
 30
0.0
 11
-0.5292325129314081
 21
24.834032618929761
 31
0.0
 12
-0.5708991795980724
 22
25.084032618929761
 32
0.0
 13
-0.5708991795980724
 23
25.084032618929761
 33
0.0
  0
SOLID
  5
5B455
  8
DIM
 10
-0.6125658462647367
 20
22.207508455327289
 30
0.0
 11
-0.5292325129314081
 21
22.207508455327289
 31
0.0
 12
-0.5708991795980724
 22
21.957508455327289
 32
0.0
 13
-0.5708991795980724
 23
21.957508455327289
 33
0.0
  0
TEXT
  5
5B456
  8
DIM
 10
-1.243708282858941
 20
23.33327053712852
 30
0.0
 40
0.375
  1
3 1/8"
  7
SMOOTH
 72
     1
 11
-0.5708991795980724
 21
23.52077053712852
 31
0.0
 73
     2
  0
LINE
  5
5B458
  8
DIM
 10
6.4898143826976948
 20
16.86391628763614
 30
0.0
 11
-0.750899179598072
 21
16.86391628763614
 31
0.0
  0
LINE
  5
5B459
  8
DIM
 10
-0.5708991795980724
 20
21.707508455327289
 30
0.0
 11
-0.5708991795980724
 21
19.688212371481711
 31
0.0
  0
LINE
  5
5B45A
  8
DIM
 10
-0.5708991795980724
 20
17.11391628763614
 30
0.0
 11
-0.5708991795980724
 21
19.133212371481712
 31
0.0
  0
SOLID
  5
5B45B
  8
DIM
 10
-0.6125658462647367
 20
21.707508455327289
 30
0.0
 11
-0.5292325129314081
 21
21.707508455327289
 31
0.0
 12
-0.5708991795980724
 22
21.957508455327289
 32
0.0
 13
-0.5708991795980724
 23
21.957508455327289
 33
0.0
  0
SOLID
  5
5B45C
  8
DIM
 10
-0.6125658462647367
 20
17.11391628763614
 30
0.0
 11
-0.5292325129314081
 21
17.11391628763614
 31
0.0
 12
-0.5708991795980724
 22
16.86391628763614
 32
0.0
 13
-0.5708991795980724
 23
16.86391628763614
 33
0.0
  0
TEXT
  5
5B45D
  8
DIM
 10
-1.243708282858941
 20
19.223212371481711
 30
0.0
 40
0.375
  1
5 1/8"
  7
SMOOTH
 72
     1
 11
-0.5708991795980724
 21
19.410712371481711
 31
0.0
 73
     2
  0
LINE
  5
5B45E
  8
DIM
 10
1.6613872579515101
 20
21.692343412382328
 30
0.0
 11
1.6613872579515101
 21
14.890479145119469
 31
0.0
  0
LINE
  5
5B460
  8
DIM
 10
1.9113872579515101
 20
15.070479145119471
 30
0.0
 11
3.2968783999155491
 21
15.070479145119471
 31
0.0
  0
LINE
  5
5B461
  8
DIM
 10
6.5049794256426523
 20
15.070479145119471
 30
0.0
 11
5.05179315888779
 21
15.070479145119471
 31
0.0
  0
SOLID
  5
5B462
  8
DIM
 10
1.9113872579515101
 20
15.11214581178614
 30
0.0
 11
1.9113872579515101
 21
15.02881247845281
 31
0.0
 12
1.6613872579515101
 22
15.070479145119471
 32
0.0
 13
1.6613872579515101
 23
15.070479145119471
 33
0.0
  0
SOLID
  5
5B463
  8
DIM
 10
6.5049794256426523
 20
15.11214581178614
 30
0.0
 11
6.5049794256426523
 21
15.02881247845281
 31
0.0
 12
6.7549794256426523
 22
15.070479145119471
 32
0.0
 13
6.7549794256426523
 23
15.070479145119471
 33
0.0
  0
TEXT
  5
5B464
  8
DIM
 10
3.5353742385362041
 20
14.882979145119471
 30
0.0
 40
0.375
  1
5 1/8"
  7
SMOOTH
 72
     1
 11
4.2081833417970742
 21
15.070479145119471
 31
0.0
 73
     2
  0
LINE
  5
5B473
  8
DIM
 10
20.702035832426571
 20
25.084032618929761
 30
0.0
 11
18.603741304161961
 21
25.084032618929761
 31
0.0
  0
LINE
  5
5B474
  8
DIM
 10
20.702035832426571
 20
16.86391628763614
 30
0.0
 11
18.603741304161961
 21
16.86391628763614
 31
0.0
  0
LINE
  5
5B475
  8
DIM
 10
18.783741304161961
 20
24.834032618929761
 30
0.0
 11
18.783741304161961
 21
21.251474453282949
 31
0.0
  0
LINE
  5
5B476
  8
DIM
 10
18.783741304161961
 20
17.11391628763614
 30
0.0
 11
18.783741304161961
 21
20.696474453282949
 31
0.0
  0
SOLID
  5
5B477
  8
DIM
 10
18.742074637495278
 20
24.834032618929761
 30
0.0
 11
18.825407970828628
 21
24.834032618929761
 31
0.0
 12
18.783741304161961
 22
25.084032618929761
 32
0.0
 13
18.783741304161961
 23
25.084032618929761
 33
0.0
  0
SOLID
  5
5B478
  8
DIM
 10
18.742074637495278
 20
17.11391628763614
 30
0.0
 11
18.825407970828628
 21
17.11391628763614
 31
0.0
 12
18.783741304161961
 22
16.86391628763614
 32
0.0
 13
18.783741304161961
 23
16.86391628763614
 33
0.0
  0
TEXT
  5
5B479
  8
DIM
 10
18.110932200901079
 20
20.786474453282949
 30
0.0
 40
0.375
  1
8 1/4"
  7
SMOOTH
 72
     1
 11
18.783741304161961
 21
20.973974453282949
 31
0.0
 73
     2
  0
LINE
  5
5B47B
  8
DIM
 10
23.327035832426571
 20
25.084032618929761
 30
0.0
 11
25.059597051641241
 21
25.084032618929761
 31
0.0
  0
LINE
  5
5B47C
  8
DIM
 10
24.879597051641241
 20
19.11391628763613
 30
0.0
 11
24.879597051641241
 21
21.696474453282949
 31
0.0
  0
LINE
  5
5B47D
  8
DIM
 10
24.879597051641241
 20
24.834032618929761
 30
0.0
 11
24.879597051641241
 21
22.251474453282949
 31
0.0
  0
SOLID
  5
5B47E
  8
DIM
 10
24.83793038497458
 20
19.11391628763613
 30
0.0
 11
24.921263718307909
 21
19.11391628763613
 31
0.0
 12
24.879597051641241
 22
18.86391628763614
 32
0.0
 13
24.879597051641241
 23
18.86391628763614
 33
0.0
  0
SOLID
  5
5B47F
  8
DIM
 10
24.83793038497458
 20
24.834032618929761
 30
0.0
 11
24.921263718307909
 21
24.834032618929761
 31
0.0
 12
24.879597051641241
 22
25.084032618929761
 32
0.0
 13
24.879597051641241
 23
25.084032618929761
 33
0.0
  0
TEXT
  5
5B480
  8
DIM
 10
24.206787948380359
 20
21.786474453282949
 30
0.0
 40
0.375
  1
6 1/4"
  7
SMOOTH
 72
     1
 11
24.879597051641241
 21
21.973974453282949
 31
0.0
 73
     2
  0
LINE
  5
5B481
  8
DIM
 10
1.838163953248148
 20
24.907255923633119
 30
0.0
 11
5.4939454235983121
 21
21.251474453282938
 31
0.0
  0
LINE
  5
5B482
  8
DIM
 10
9.7047268939484823
 20
17.040692982932772
 30
0.0
 11
6.048945423598318
 21
20.696474453282939
 31
0.0
  0
SOLID
  5
5B483
  8
DIM
 10
1.867626735797578
 20
24.93671870618255
 30
0.0
 11
1.808701170698704
 21
24.877793141083671
 31
0.0
 12
1.6613872579515101
 22
25.084032618929751
 32
0.0
 13
1.6613872579515101
 23
25.084032618929751
 33
0.0
  0
SOLID
  5
5B484
  8
DIM
 10
9.7341896764979268
 20
17.070155765482209
 30
0.0
 11
9.6752641113990379
 21
17.011230200383331
 31
0.0
 12
9.8815035892451206
 22
16.86391628763614
 32
0.0
 13
9.8815035892451206
 23
16.86391628763614
 33
0.0
  0
TEXT
  5
5B485
  8
DIM
 10
4.9535531002287501
 20
20.786474453282938
 30
0.0
 40
0.375
  1
11 5/8"
  7
SMOOTH
 72
     1
 11
5.7714454235983146
 21
20.973974453282938
 31
0.0
 73
     2
  0
LINE
  5
5B486
  8
DIM
 10
7.8846553017459859
 20
20.50721118454198
 30
0.0
 11
7.057300956142015
 21
19.679856838938001
 31
0.0
  0
LINE
  5
5B487
  8
DIM
 10
5.6749466105380364
 20
18.297502493334019
 30
0.0
 11
6.5023009561420153
 21
19.124856838938001
 31
0.0
  0
SOLID
  5
5B488
  8
DIM
 10
7.8551925191965557
 20
20.536673967091421
 30
0.0
 11
7.9141180842954313
 21
20.477748401992539
 31
0.0
 12
8.0614319970426251
 22
20.683987879838622
 32
0.0
 13
8.0614319970426251
 23
20.683987879838622
 33
0.0
  0
SOLID
  5
5B489
  8
DIM
 10
5.6454838279885911
 20
18.32696527588346
 30
0.0
 11
5.70440939308748
 21
18.268039710784581
 31
0.0
 12
5.4981699152413981
 22
18.120725798037391
 32
0.0
 13
5.4981699152413981
 23
18.120725798037391
 33
0.0
  0
TEXT
  5
5B48A
  8
DIM
 10
6.1069918528811487
 20
19.214856838938001
 30
0.0
 40
0.375
  1
3 5/8"
  7
SMOOTH
 72
     1
 11
6.7798009561420178
 21
19.402356838938001
 31
0.0
 73
     2
  0
INSERT
  5
5B48B
  8
OBJ
  2
*X1
 10
44.241174416306187
 20
1.3078725248322911
 30
0.0
 41
-1.0
1001
ACAD
1000
HATCH
1002
{
1070
    16
1000
DOTS
1040
2.25
1040
0.7853981633974483
1002
}
  0
LINE
  5
5B48C
  8
DIM
 10
9.8815035892451206
 20
4.3635314714359659
 30
0.0
 11
9.8815035892451206
 21
2.6772593440967678
 31
0.0
  0
LINE
  5
5B48D
  8
DIM
 10
1.6613872579515101
 20
4.363531471435965
 30
0.0
 11
1.6613872579515101
 21
2.6772593440967678
 31
0.0
  0
LINE
  5
5B48E
  8
DIM
 10
9.6315035892451206
 20
2.8572593440967671
 30
0.0
 11
6.5729909399026631
 21
2.8572593440967671
 31
0.0
  0
LINE
  5
5B48F
  8
DIM
 10
1.9113872579515101
 20
2.8572593440967671
 30
0.0
 11
4.9698999072939669
 21
2.8572593440967671
 31
0.0
  0
SOLID
  5
5B490
  8
DIM
 10
9.6315035892451206
 20
2.898926010763434
 30
0.0
 11
9.6315035892451206
 21
2.815592677430101
 31
0.0
 12
9.8815035892451206
 22
2.8572593440967671
 32
0.0
 13
9.8815035892451206
 23
2.8572593440967671
 33
0.0
  0
SOLID
  5
5B491
  8
DIM
 10
1.9113872579515101
 20
2.898926010763434
 30
0.0
 11
1.9113872579515101
 21
2.815592677430101
 31
0.0
 12
1.6613872579515101
 22
2.8572593440967671
 32
0.0
 13
1.6613872579515101
 23
2.8572593440967671
 33
0.0
  0
INSERT
  5
5B492
  8
DIM
  2
*U7
 10
0.0
 20
0.0
 30
0.0
  0
LINE
  5
5B493
  8
DIM
 10
3.6613872579515099
 20
6.9885314714359659
 30
0.0
 11
3.6613872579515099
 21
8.4837955867795571
 31
0.0
  0
LINE
  5
5B494
  8
DIM
 10
9.8815035892451206
 20
6.988531471435965
 30
0.0
 11
9.8815035892451206
 21
8.4837955867795571
 31
0.0
  0
LINE
  5
5B495
  8
DIM
 10
3.9113872579515099
 20
8.3037955867795574
 30
0.0
 11
5.9698999072939669
 21
8.3037955867795574
 31
0.0
  0
LINE
  5
5B496
  8
DIM
 10
9.6315035892451206
 20
8.3037955867795574
 30
0.0
 11
7.5729909399026631
 21
8.3037955867795574
 31
0.0
  0
SOLID
  5
5B497
  8
DIM
 10
3.9113872579515099
 20
8.3454622534462235
 30
0.0
 11
3.9113872579515099
 21
8.2621289201128914
 31
0.0
 12
3.6613872579515099
 22
8.3037955867795574
 32
0.0
 13
3.6613872579515099
 23
8.3037955867795574
 33
0.0
  0
SOLID
  5
5B498
  8
DIM
 10
9.6315035892451206
 20
8.3454622534462235
 30
0.0
 11
9.6315035892451206
 21
8.2621289201128914
 31
0.0
 12
9.8815035892451206
 22
8.3037955867795574
 32
0.0
 13
9.8815035892451206
 23
8.3037955867795574
 33
0.0
  0
INSERT
  5
5B499
  8
DIM
  2
*U8
 10
0.0
 20
0.0
 30
0.0
  0
LINE
  5
5B49A
  8
DIM
 10
3.6613872579515099
 20
6.9885314714359659
 30
0.0
 11
3.6613872579515099
 21
8.4837955867795571
 31
0.0
  0
LINE
  5
5B49B
  8
DIM
 10
1.6613872579515101
 20
6.9885314714359659
 30
0.0
 11
1.6613872579515101
 21
8.4837955867795571
 31
0.0
  0
LINE
  5
5B49C
  8
DIM
 10
3.4113872579515099
 20
8.3037955867795574
 30
0.0
 11
3.030994934581944
 21
8.3037955867795574
 31
0.0
  0
LINE
  5
5B49D
  8
DIM
 10
1.9113872579515101
 20
8.3037955867795574
 30
0.0
 11
2.2917795813210748
 21
8.3037955867795574
 31
0.0
  0
SOLID
  5
5B49E
  8
DIM
 10
3.4113872579515099
 20
8.3454622534462235
 30
0.0
 11
3.4113872579515099
 21
8.2621289201128914
 31
0.0
 12
3.6613872579515099
 22
8.3037955867795574
 32
0.0
 13
3.6613872579515099
 23
8.3037955867795574
 33
0.0
  0
SOLID
  5
5B49F
  8
DIM
 10
1.9113872579515101
 20
8.3454622534462235
 30
0.0
 11
1.9113872579515101
 21
8.2621289201128914
 31
0.0
 12
1.6613872579515101
 22
8.3037955867795574
 32
0.0
 13
1.6613872579515101
 23
8.3037955867795574
 33
0.0
  0
INSERT
  5
5B4A0
  8
DIM
  2
*U9
 10
0.0
 20
0.0
 30
0.0
  0
ENDSEC
  0
EOF
