  0
SECTION
  2
HEADER
  9
$ACADVER
  1
AC1009
  9
$INSBASE
 10
0.0
 20
0.0
 30
0.0
  9
$EXTMIN
 10
-33.788584274428317
 20
1.6464347103735191
 30
-0.000000000000013
  9
$EXTMAX
 10
-8.1711479916666292
 20
20.857491362443429
 30
0.0000000000000023
  9
$LIMMIN
 10
0.0
 20
0.0
  9
$LIMMAX
 10
30.0
 20
20.0
  9
$ORTHOMODE
 70
     1
  9
$REGENMODE
 70
     1
  9
$FILLMODE
 70
     1
  9
$QTEXTMODE
 70
     0
  9
$MIRRTEXT
 70
     0
  9
$DRAGMODE
 70
     2
  9
$LTSCALE
 40
1.0
  9
$OSMODE
 70
    55
  9
$ATTMODE
 70
     1
  9
$TEXTSIZE
 40
0.5244619964034976
  9
$TRACEWID
 40
0.05
  9
$TEXTSTYLE
  7
SMOOTH
  9
$CLAYER
  8
DIM
  9
$CELTYPE
  6
BYLAYER
  9
$CECOLOR
 62
   256
  9
$DIMSCALE
 40
1.0
  9
$DIMASZ
 40
0.25
  9
$DIMEXO
 40
0.1875
  9
$DIMDLI
 40
0.375
  9
$DIMRND
 40
0.0
  9
$DIMDLE
 40
0.0
  9
$DIMEXE
 40
0.18
  9
$DIMTP
 40
0.0
  9
$DIMTM
 40
0.0
  9
$DIMTXT
 40
0.375
  9
$DIMCEN
 40
0.09
  9
$DIMTSZ
 40
0.0
  9
$DIMTOL
 70
     0
  9
$DIMLIM
 70
     0
  9
$DIMTIH
 70
     1
  9
$DIMTOH
 70
     1
  9
$DIMSE1
 70
     0
  9
$DIMSE2
 70
     0
  9
$DIMTAD
 70
     0
  9
$DIMZIN
 70
     0
  9
$DIMBLK
  1

  9
$DIMASO
 70
     0
  9
$DIMSHO
 70
     1
  9
$DIMPOST
  1

  9
$DIMAPOST
  1

  9
$DIMALT
 70
     0
  9
$DIMALTD
 70
     2
  9
$DIMALTF
 40
25.399999999999999
  9
$DIMLFAC
 40
1.0
  9
$DIMTOFL
 70
     0
  9
$DIMTVP
 40
0.0
  9
$DIMTIX
 70
     0
  9
$DIMSOXD
 70
     0
  9
$DIMSAH
 70
     0
  9
$DIMBLK1
  1

  9
$DIMBLK2
  1

  9
$DIMSTYLE
  2
STANDARD
  9
$DIMCLRD
 70
   256
  9
$DIMCLRE
 70
   256
  9
$DIMCLRT
 70
   256
  9
$DIMTFAC
 40
1.0
  9
$DIMGAP
 40
0.15625
  9
$LUNITS
 70
     4
  9
$LUPREC
 70
     4
  9
$SKETCHINC
 40
0.1
  9
$FILLETRAD
 40
0.0
  9
$AUNITS
 70
     0
  9
$AUPREC
 70
     8
  9
$MENU
  1
acad
  9
$ELEVATION
 40
0.0
  9
$PELEVATION
 40
0.0
  9
$THICKNESS
 40
0.0
  9
$LIMCHECK
 70
     0
  9
$BLIPMODE
 70
     0
  9
$CHAMFERA
 40
0.0
  9
$CHAMFERB
 40
0.0
  9
$SKPOLY
 70
     0
  9
$TDCREATE
 40
2449555.5145552089
  9
$TDUPDATE
 40
2458206.5620403588
  9
$TDINDWG
 40
15.425508414399999
  9
$TDUSRTIMER
 40
15.425508414399999
  9
$USRTIMER
 70
     1
  9
$ANGBASE
 50
0.0
  9
$ANGDIR
 70
     0
  9
$PDMODE
 70
     0
  9
$PDSIZE
 40
0.0
  9
$PLINEWID
 40
0.0
  9
$COORDS
 70
     1
  9
$SPLFRAME
 70
     0
  9
$SPLINETYPE
 70
     6
  9
$SPLINESEGS
 70
     8
  9
$ATTDIA
 70
     1
  9
$ATTREQ
 70
     1
  9
$HANDLING
 70
     1
  9
$HANDSEED
  5
5427D
  9
$SURFTAB1
 70
     6
  9
$SURFTAB2
 70
     6
  9
$SURFTYPE
 70
     6
  9
$SURFU
 70
     6
  9
$SURFV
 70
     6
  9
$UCSNAME
  2

  9
$UCSORG
 10
0.0
 20
0.0
 30
0.0
  9
$UCSXDIR
 10
1.0
 20
0.0
 30
0.0
  9
$UCSYDIR
 10
0.0
 20
1.0
 30
0.0
  9
$PUCSNAME
  2

  9
$PUCSORG
 10
0.0
 20
0.0
 30
0.0
  9
$PUCSXDIR
 10
1.0
 20
0.0
 30
0.0
  9
$PUCSYDIR
 10
0.0
 20
1.0
 30
0.0
  9
$USERI1
 70
     0
  9
$USERI2
 70
     0
  9
$USERI3
 70
     0
  9
$USERI4
 70
     0
  9
$USERI5
 70
     0
  9
$USERR1
 40
0.0
  9
$USERR2
 40
0.0
  9
$USERR3
 40
0.0
  9
$USERR4
 40
0.0
  9
$USERR5
 40
0.0
  9
$WORLDVIEW
 70
     1
  9
$SHADEDGE
 70
     3
  9
$SHADEDIF
 70
    70
  9
$TILEMODE
 70
     1
  9
$MAXACTVP
 70
    16
  9
$PLIMCHECK
 70
     0
  9
$PEXTMIN
 10
1.0000000000000000E+020
 20
1.0000000000000000E+020
 30
1.0000000000000000E+020
  9
$PEXTMAX
 10
-1.0000000000000000E+020
 20
-1.0000000000000000E+020
 30
-1.0000000000000000E+020
  9
$PLIMMIN
 10
0.0
 20
0.0
  9
$PLIMMAX
 10
12.0
 20
9.0
  9
$UNITMODE
 70
     0
  9
$VISRETAIN
 70
     0
  9
$PLINEGEN
 70
     0
  9
$PSLTSCALE
 70
     0
  0
ENDSEC
  0
SECTION
  2
TABLES
  0
TABLE
  2
VPORT
 70
     1
  0
VPORT
  2
*ACTIVE
 70
     0
 10
0.0
 20
0.0
 11
1.0
 21
1.0
 12
-20.97986613304748
 22
11.251963036408471
 13
0.0
 23
0.0
 14
1.0
 24
1.0
 15
0.0
 25
0.0
 16
0.0
 26
0.0
 36
1.0
 17
0.0
 27
0.0
 37
0.0
 40
19.39322229109467
 41
2.1100628930817611
 42
50.0
 43
0.0
 44
0.0
 50
0.0
 51
0.0
 71
     0
 72
   100
 73
     1
 74
     0
 75
     0
 76
     0
 77
     0
 78
     0
  0
ENDTAB
  0
TABLE
  2
LTYPE
 70
     1
  0
LTYPE
  2
CONTINUOUS
 70
     0
  3
Solid line
 72
    65
 73
     0
 40
0.0
  0
ENDTAB
  0
TABLE
  2
LAYER
 70
     7
  0
LAYER
  2
0
 70
     0
 62
     7
  6
CONTINUOUS
  0
LAYER
  2
OBJ
 70
     0
 62
     7
  6
CONTINUOUS
  0
LAYER
  2
TITLE
 70
     0
 62
     7
  6
CONTINUOUS
  0
LAYER
  2
TITLE2
 70
     0
 62
     7
  6
CONTINUOUS
  0
LAYER
  2
DEFPOINTS
 70
     0
 62
     7
  6
CONTINUOUS
  0
LAYER
  2
DIM
 70
     0
 62
     7
  6
CONTINUOUS
  0
LAYER
  2
CONTOURS
 70
     0
 62
     7
  6
CONTINUOUS
  0
ENDTAB
  0
TABLE
  2
STYLE
 70
     6
  0
STYLE
  2
STANDARD
 70
     0
 40
0.0
 41
1.0
 50
0.0
 71
     0
 42
0.2
  3
TXT
  4

  0
STYLE
  2
SMOOTH
 70
     0
 40
0.0
 41
1.0
 50
0.0
 71
     0
 42
0.5244619964034976
  3
txt
  4

  0
STYLE
  2
SIMPLEX
 70
     0
 40
0.0
 41
1.0
 50
0.0
 71
     0
 42
0.01
  3
txt
  4

  0
STYLE
  2
GG
 70
     0
 40
0.0078125
 41
1.0
 50
0.0
 71
     0
 42
0.0078125
  3
txt
  4

  0
STYLE
  2
GGATT
 70
     0
 40
0.0
 41
1.0
 50
0.0
 71
     0
 42
0.0104166666666678
  3
txt
  4

  0
ENDTAB
  0
TABLE
  2
VIEW
 70
     0
  0
ENDTAB
  0
TABLE
  2
UCS
 70
     0
  0
ENDTAB
  0
TABLE
  2
APPID
 70
    25
  0
APPID
  2
ACAD
 70
     0
  0
APPID
  2
ACAD_DSTYLE_DIMTEXT_FILL
 70
     0
  0
APPID
  2
ACAECLAYERSTANDARD
 70
     0
  0
APPID
  2
ACAD_PSEXT
 70
     0
  0
APPID
  2
RAK
 70
     0
  0
APPID
  2
ACAD_MLEADERVER
 70
     0
  0
APPID
  2
MCAD_NO_VIS
 70
     0
  0
APPID
  2
ACAD_TEMP_GRAPHIC
 70
     0
  0
APPID
  2
AD_DRAW
 70
     0
  0
APPID
  2
ACATTRIBSERVICES
 70
     0
  0
APPID
  2
DESIGNERASSEMBLIES
 70
     0
  0
APPID
  2
ACADM_DIM_EDIT
 70
     0
  0
APPID
  2
AMDT_DM_ADJ
 70
     0
  0
APPID
  2
DCO15
 70
     0
  0
APPID
  2
ACAD_EXEMPT_FROM_CAD_STANDARDS
 70
     0
  0
APPID
  2
ACAD_NAV_VCDISPLAY
 70
     0
  0
APPID
  2
ACAD_DSTYLE_DIMARC_LENGTH_
 70
     0
  0
APPID
  2
ACADANNOPO
 70
     0
  0
APPID
  2
ACAD_DSTYLE_DIMJAG
 70
     0
  0
APPID
  2
ACAD_DSTYLE_DIMTALN
 70
     0
  0
APPID
  2
ACAD_DSTYLE_DIMRADIAL_EXTENSION
 70
     0
  0
APPID
  2
ACCMTRANSPARENCY
 70
     0
  0
APPID
  2
GRADIENTCOLOR1ACI
 70
     0
  0
APPID
  2
GRADIENTCOLOR2ACI
 70
     0
  0
APPID
  2
CONTENTBLOCKICON
 70
     0
  0
ENDTAB
  0
TABLE
  2
DIMSTYLE
 70
     2
  0
DIMSTYLE
  2
STANDARD
 70
     0
  3

  4

  5

  6

  7

 40
1.0
 41
0.25
 42
0.125
 43
0.38
 44
0.18
 45
0.0
 46
0.0
 47
0.0
 48
0.0
140
0.375
141
0.09
142
0.0
143
25.399999999999999
144
1.0
145
0.0
146
1.0
147
0.09375
 71
     0
 72
     0
 73
     1
 74
     1
 75
     0
 76
     0
 77
     0
 78
     0
170
     0
171
     2
172
     0
173
     0
174
     0
175
     0
176
   256
177
   256
178
   256
  0
ENDTAB
  0
ENDSEC
  0
SECTION
  2
BLOCKS
  0
BLOCK
  8
0
  2
$MODEL_SPACE
 70
     0
 10
0.0
 20
0.0
 30
0.0
  3
$MODEL_SPACE
  1

  0
ENDBLK
  5
36
  8
0
  0
BLOCK
 67
     1
  8
0
  2
$PAPER_SPACE
 70
     0
 10
0.0
 20
0.0
 30
0.0
  3
$PAPER_SPACE
  1

  0
ENDBLK
  5
34
 67
     1
  8
0
  0
BLOCK
  8
0
  2
TITLEBLOCK2018
 70
     2
 10
0.0
 20
0.0
 30
0.0
  3
TITLEBLOCK2018
  1

  0
TEXT
  5
519AE
  8
TITLE
 10
-15.5080855019004
 20
22.839227868014159
 30
0.0
 40
0.8923397010612436
  1
CATALOG SHAPE
 41
0.5000000000000098
  7
GG
  0
TEXT
  5
519AF
  8
TITLE
 10
-20.665040879633459
 20
22.84950118295238
 30
0.0
 40
0.9043244580165586
  1
.
 41
0.5000000000000098
  7
GG
  0
TEXT
  5
519B0
  8
TITLE
 10
-29.57102643300615
 20
22.50308034591276
 30
0.0
 40
0.2702390500332978
  1
Title
 41
0.800530503978795
  7
SIMPLEX
  0
POLYLINE
  5
519B1
  8
TITLE
 66
     1
 10
0.0
 20
0.0
 30
0.0
 40
0.064375
 41
0.064375
  0
VERTEX
  5
53B00
  8
TITLE
 10
-33.757371477386471
 20
1.089099129173027
 30
0.0
  0
VERTEX
  5
53B01
  8
TITLE
 10
-2.6182998452608821
 20
1.089099129173027
 30
0.0
  0
SEQEND
  5
53B02
  8
TITLE
  0
POLYLINE
  5
519B2
  8
TITLE
 66
     1
 10
0.0
 20
0.0
 30
0.0
 40
0.064375
 41
0.064375
  0
VERTEX
  5
53B03
  8
TITLE
 10
-2.6182998452608821
 20
1.089099129173027
 30
0.0
  0
VERTEX
  5
53B04
  8
TITLE
 10
-2.6182998452608821
 20
24.42792617750569
 30
0.0
  0
SEQEND
  5
53B05
  8
TITLE
  0
POLYLINE
  5
519B3
  8
TITLE
 66
     1
 10
0.0
 20
0.0
 30
0.0
 40
0.064375
 41
0.064375
  0
VERTEX
  5
53B06
  8
TITLE
 10
-2.6182998452608821
 20
24.42792617750569
 30
0.0
  0
VERTEX
  5
53B07
  8
TITLE
 10
-33.757371477386471
 20
24.42792617750569
 30
0.0
  0
SEQEND
  5
53B08
  8
TITLE
  0
POLYLINE
  5
519B4
  8
TITLE
 66
     1
 10
0.0
 20
0.0
 30
0.0
 40
0.064375
 41
0.064375
  0
VERTEX
  5
53B09
  8
TITLE
 10
-33.757371477386471
 20
24.42792617750569
 30
0.0
  0
VERTEX
  5
53B0A
  8
TITLE
 10
-33.757371477386471
 20
1.089099129173027
 30
0.0
  0
SEQEND
  5
53B0B
  8
TITLE
  0
POLYLINE
  5
519B5
  8
TITLE
 66
     1
 10
0.0
 20
0.0
 30
0.0
 40
0.064375
 41
0.064375
  0
VERTEX
  5
53B0C
  8
TITLE
 10
-8.4568757762866476
 20
24.42792617750569
 30
0.0
  0
VERTEX
  5
53B0D
  8
TITLE
 10
-8.4568757762866476
 20
1.089099129173027
 30
0.0
  0
SEQEND
  5
53B0E
  8
TITLE
  0
LINE
  5
519B6
  8
TITLE
 10
-8.4568757762866476
 20
21.516831973353781
 30
0.0
 11
-2.6182998452608821
 21
21.516831973353781
 31
0.0
  0
LINE
  5
519B7
  8
TITLE
 10
-8.4568757762866476
 20
19.762367964026559
 30
0.0
 11
-2.6182998452608821
 21
19.762367964026559
 31
0.0
  0
LINE
  5
519B8
  8
TITLE
 10
-8.4568757762866476
 20
17.938885741967919
 30
0.0
 11
-2.6182998452608821
 21
17.938885741967919
 31
0.0
  0
LINE
  5
519B9
  8
TITLE
 10
-8.4568757762866476
 20
17.209547396707599
 30
0.0
 11
-2.6182998452608821
 21
17.209547396707599
 31
0.0
  0
LINE
  5
519BA
  8
TITLE
 10
-8.4568757762866476
 20
16.480209051447272
 30
0.0
 11
-2.6182998452608821
 21
16.480209051447272
 31
0.0
  0
LINE
  5
519BB
  8
TITLE
 10
-8.4568757762866476
 20
15.75087070618695
 30
0.0
 11
-2.6182998452608821
 21
15.75087070618695
 31
0.0
  0
LINE
  5
519BC
  8
TITLE
 10
-8.4568757762866476
 20
15.02153236092663
 30
0.0
 11
-2.6182998452608821
 21
15.02153236092663
 31
0.0
  0
LINE
  5
519BD
  8
TITLE
 10
-8.4568757762866476
 20
14.292194015666309
 30
0.0
 11
-2.6182998452608821
 21
14.292194015666309
 31
0.0
  0
LINE
  5
519BE
  8
TITLE
 10
-8.4568757762866476
 20
13.562855670405989
 30
0.0
 11
-2.6182998452608821
 21
13.562855670405989
 31
0.0
  0
LINE
  5
519BF
  8
TITLE
 10
-8.4568757762866476
 20
12.557444474219951
 30
0.0
 11
-2.6182998452608821
 21
12.557444474219951
 31
0.0
  0
LINE
  5
519C0
  8
TITLE
 10
-8.4568757762866476
 20
11.828106128959631
 30
0.0
 11
-2.6182998452608821
 21
11.828106128959631
 31
0.0
  0
LINE
  5
519C1
  8
TITLE
 10
-8.4568757762866476
 20
11.09876778369931
 30
0.0
 11
-2.6182998452608821
 21
11.09876778369931
 31
0.0
  0
LINE
  5
519C2
  8
TITLE
 10
-8.4568757762866476
 20
9.6400910931786612
 30
0.0
 11
-2.6182998452608821
 21
9.6400910931786612
 31
0.0
  0
LINE
  5
519C3
  8
TITLE
 10
-8.4568757762866476
 20
8.910752747918341
 30
0.0
 11
-2.6182998452608821
 21
8.910752747918341
 31
0.0
  0
LINE
  5
519C4
  8
TITLE
 10
-8.4568757762866476
 20
8.1814144026580191
 30
0.0
 11
-2.6182998452608821
 21
8.1814144026580191
 31
0.0
  0
LINE
  5
519C5
  8
TITLE
 10
-8.4568757762866476
 20
7.4520760573976954
 30
0.0
 11
-2.6182998452608821
 21
7.4520760573976954
 31
0.0
  0
LINE
  5
519C6
  8
TITLE
 10
-8.4568757762866476
 20
6.7227377121373726
 30
0.0
 11
-2.6182998452608821
 21
6.7227377121373726
 31
0.0
  0
POLYLINE
  5
519C7
  8
TITLE
 66
     1
 10
0.0
 20
0.0
 30
0.0
 40
0.064375
 41
0.064375
  0
VERTEX
  5
53B0F
  8
TITLE
 10
-8.4568757762866476
 20
5.9933993668768384
 30
0.0
  0
VERTEX
  5
53B10
  8
TITLE
 10
-2.6182998452608821
 20
5.9933993668768384
 30
0.0
  0
SEQEND
  5
53B11
  8
TITLE
  0
TEXT
  5
519C8
  8
TITLE
 10
-8.2136017791606992
 20
21.152162800723609
 30
0.0
 40
0.233388270483323
  1
DRAWING:
 41
0.6671087533156612
  7
GG
  0
TEXT
  5
519C9
  8
TITLE
 10
-8.2136017791606992
 20
19.329652666168229
 30
0.0
 40
0.233388270483323
  1
PROJECT:
 41
0.6671087533156612
  7
GG
  0
TEXT
  5
519CA
  8
TITLE
 10
-8.2136017791606992
 20
17.574216569337761
 30
0.0
 40
0.2333882704833194
  1
PAGE:
 41
0.6671087533156717
  7
GG
  0
TEXT
  5
519CB
  8
TITLE
 10
-5.6073411886106683
 20
17.574216569337761
 30
0.0
 40
0.2333882704833194
  1
DATE:
 41
0.6671087533156714
  7
GG
  0
TEXT
  5
519CC
  8
TITLE
 10
-8.2136017791606992
 20
16.84487822407743
 30
0.0
 40
0.233388270483323
  1
ARCHITECT:
 41
0.6671087533156612
  7
GG
  0
TEXT
  5
519CD
  8
TITLE
 10
-8.2136017791606992
 20
16.11553987881712
 30
0.0
 40
0.2333882704833212
  1
CUSTOMER:
 41
0.6671087533156664
  7
GG
  0
TEXT
  5
519CE
  8
TITLE
 10
-8.2136017791606992
 20
15.38620153355679
 30
0.0
 40
0.2333882704833212
  1
SALES REP:
 41
0.6671087533156664
  7
GG
  0
TEXT
  5
519CF
  8
TITLE
 10
-8.2136017791606992
 20
14.65686318829647
 30
0.0
 40
0.2333882704833212
  1
SALES OFFICE:
 41
0.6671087533156664
  7
GG
  0
TEXT
  5
519D0
  8
TITLE
 10
-8.2136017791606992
 20
13.92752484303614
 30
0.0
 40
0.233388270483323
  1
PLANT:
 41
0.6671087533156612
  7
GG
  0
TEXT
  5
519D1
  8
TITLE
 10
-8.2136017791606992
 20
13.19818649777582
 30
0.0
 40
0.2333882704833212
  1
BRICK NAME:
 41
0.6671087533156664
  7
GG
  0
TEXT
  5
519D2
  8
TITLE
 10
-8.2136017791606992
 20
12.192775301589791
 30
0.0
 40
0.2333882704833212
  1
BRICK TYPE:
 41
0.6671087533156664
  7
GG
  0
TEXT
  5
519D3
  8
TITLE
 10
-8.2136017791606992
 20
11.46343695632947
 30
0.0
 40
0.2333882704833212
  1
TEXTURE:
 41
0.6671087533156664
  7
GG
  0
TEXT
  5
519D4
  8
TITLE
 10
-8.2136017791606992
 20
9.2754219205485011
 30
0.0
 40
0.2333882704833212
  1
CORING:
 41
0.6671087533156664
  7
GG
  0
TEXT
  5
519D5
  8
TITLE
 10
-8.2136017791606992
 20
8.5460835752881792
 30
0.0
 40
0.2333882704833212
  1
SIZE:
 41
0.8005305039787968
  7
SIMPLEX
  0
TEXT
  5
519D6
  8
TITLE
 10
-5.5945121978335273
 20
8.5460835752881792
 30
0.0
 40
0.2333882704833212
  1
BOND:
 41
0.8005305039787968
  7
SIMPLEX
  0
TEXT
  5
519D7
  8
TITLE
 10
-8.2136017791606992
 20
7.8167452300278573
 30
0.0
 40
0.2333882704833221
  1
ASTM STANDARD:
 41
0.8005305039787938
  7
SIMPLEX
  0
TEXT
  5
519D8
  8
TITLE
 10
-8.2136017791606992
 20
7.0874068847675344
 30
0.0
 40
0.2333882704833221
  1
COMPUTER FILE:
 41
0.8005305039787938
  7
SIMPLEX
  0
TEXT
  5
519D9
  8
TITLE
 10
-8.2136017791606992
 20
6.3580685395072098
 30
0.0
 40
0.2333882704833221
  1
DRAWN BY:
 41
0.8005305039787938
  7
SIMPLEX
  0
TEXT
  5
519DA
  8
TITLE
 10
-8.1819323313537815
 20
10.78160029004715
 30
0.0
 40
0.2333882704833212
  1
NUMBER OF
 41
0.8005305039787968
  7
SIMPLEX
  0
TEXT
  5
519DB
  8
TITLE
 10
-8.1254847719344951
 20
10.443197090522339
 30
0.0
 40
0.233388270483323
  1
FINISHED FACES:
 41
0.8005305039787904
  7
SIMPLEX
  0
TEXT
  5
519DC
  8
TITLE
 10
-8.3515441957258254
 20
5.623390379414321
 30
0.0
 40
0.2567270975316337
  1
This document is the property 
 41
0.8005305039787934
  7
SIMPLEX
  0
TEXT
  5
519DD
  8
TITLE
 10
-8.3515441957258254
 20
5.1255361282437493
 30
0.0
 40
0.2567270975316355
  1
of GLEN-GERY CORPORATION and
 41
0.8005305039787876
  7
SIMPLEX
  0
TEXT
  5
519DE
  8
TITLE
 10
-8.3515441957258254
 20
4.6996163523143757
 30
0.0
 40
0.2567270975316355
  1
may not be reproduced without
 41
0.8005305039787876
  7
SIMPLEX
  0
TEXT
  5
519DF
  8
TITLE
 10
-8.3515441957258254
 20
4.2377293387644093
 30
0.0
 40
0.2567270975316318
  1
written permission from the
 41
0.8005305039787991
  7
SIMPLEX
  0
TEXT
  5
519E0
  8
TITLE
 10
-8.3515441957258254
 20
3.7933399002731081
 30
0.0
 40
0.2567270975316337
  1
appropriate Glen-Gery 
 41
0.8005305039787934
  7
SIMPLEX
  0
TEXT
  5
519E1
  8
TITLE
 10
-8.3515441957258254
 20
3.3683922118469991
 30
0.0
 40
0.2567270975316337
  1
Representative. The contents 
 41
0.8005305039787934
  7
SIMPLEX
  0
TEXT
  5
519E2
  8
TITLE
 10
-8.3515441957258254
 20
2.943444523420891
 30
0.0
 40
0.2567270975316337
  1
of this document are advisory 
 41
0.8005305039787934
  7
SIMPLEX
  0
TEXT
  5
519E3
  8
TITLE
 10
-8.3515441957258254
 20
2.517524747491525
 30
0.0
 40
0.2567270975316337
  1
only. Responsibility for 
 41
0.8005305039787934
  7
SIMPLEX
  0
TEXT
  5
519E4
  8
TITLE
 10
-8.3515441957258254
 20
2.110074634124087
 30
0.0
 40
0.2567270975316337
  1
accuracy and applicability lies 
 41
0.8005305039787934
  7
SIMPLEX
  0
TEXT
  5
519E5
  8
TITLE
 10
-8.3268928293692142
 20
1.6306900455154449
 30
0.0
 40
0.2567270975316337
  1
entirely with the Project 
 41
0.8005305039787938
  7
SIMPLEX
  0
TEXT
  5
519E6
  8
TITLE
 10
-8.3515441957258254
 20
1.2417095947099399
 30
0.0
 40
0.2567270975316337
  1
Designer and/or Owner.
 41
0.8005305039787934
  7
SIMPLEX
  0
TEXT
  5
519E7
  8
TITLE
 10
-33.589233693619683
 20
22.53503235919726
 30
0.0
 40
0.2567270975316355
  1
Signature
 41
0.8005305039787874
  7
SIMPLEX
  0
TEXT
  5
519E8
  8
TITLE
 10
-33.652039896825642
 20
23.560062938872601
 30
0.0
 40
0.2917353381041299
  1
faces, and specifications and I agree to them.
 41
0.8005305039787916
  7
SIMPLEX
  0
TEXT
  5
519E9
  8
TITLE
 10
-33.652039896825642
 20
24.05791719004317
 30
0.0
 40
0.2917353381041263
  1
This drawing has been reviewed for dimensions,
 41
0.8005305039788017
  7
SIMPLEX
  0
LINE
  5
519EA
  8
TITLE
 10
-33.726699250059887
 20
22.838521489005618
 30
0.0
 11
-23.814614652752169
 21
22.838521489005618
 31
0.0
  0
TEXT
  5
519EB
  8
TITLE
 10
-26.179633573930641
 20
22.53503235919726
 30
0.0
 40
0.2567270975316355
  1
Date
 41
0.8005305039787879
  7
SIMPLEX
  0
POLYLINE
  5
519EC
  8
TITLE
 66
     1
 10
0.0
 20
0.0
 30
0.0
 40
0.064375
 41
0.064375
  0
VERTEX
  5
53B12
  8
TITLE
 10
-33.757371477386471
 20
22.369781862573198
 30
0.0
  0
VERTEX
  5
53B13
  8
TITLE
 10
-23.814614652752169
 20
22.369781862573198
 30
0.0
  0
SEQEND
  5
53B14
  8
TITLE
  0
POLYLINE
  5
519ED
  8
TITLE
 66
     1
 10
0.0
 20
0.0
 30
0.0
 40
0.064375
 41
0.064375
  0
VERTEX
  5
53B15
  8
TITLE
 10
-23.814614652752169
 20
22.369781862573198
 30
0.0
  0
VERTEX
  5
53B16
  8
TITLE
 10
-23.814614652752169
 20
24.42792617750569
 30
0.0
  0
SEQEND
  5
53B17
  8
TITLE
  0
TEXT
  5
519EE
  8
TITLE
 10
-8.2136017791606992
 20
10.004760265808819
 30
0.0
 40
0.233388270483323
  1
TEXTURE DIRECTION:
 41
0.6671087533156612
  7
GG
  0
LINE
  5
519EF
  8
TITLE
 10
-8.4568757762866476
 20
10.36942943843898
 30
0.0
 11
-2.6182998452608821
 21
10.36942943843898
 31
0.0
  0
POLYLINE
  5
519F0
  8
TITLE
 66
     1
 10
0.0
 20
0.0
 30
0.0
 40
0.064375
 41
0.064375
  0
VERTEX
  5
53B18
  8
TITLE
 10
-23.814614652752169
 20
22.369781862573198
 30
0.0
  0
VERTEX
  5
53B19
  8
TITLE
 10
-16.491537129062579
 20
22.369781862573198
 30
0.0
  0
SEQEND
  5
53B1A
  8
TITLE
  0
LINE
  5
519F1
  8
TITLE
 10
-16.491537129062579
 20
22.369781862573198
 30
0.0
 11
-16.491537129062579
 21
24.42792617750569
 31
0.0
  0
TEXT
  5
519F2
  8
TITLE
 10
-23.533946274646311
 20
23.00930532082182
 30
0.0
 40
0.7001648114499104
  1
Qty :
 41
0.8005305039787931
  7
SIMPLEX
  0
LINE
  5
519F3
  8
TITLE
 10
-21.128102672234618
 20
22.742173676513961
 30
0.0
 11
-16.76655935776051
 21
22.742173676513961
 31
0.0
  0
ATTDEF
  5
519F6
  8
TITLE2
 10
-8.0531348495600241
 20
20.605159041778379
 30
0.0
 40
0.364669172630178
  1
N/A
 41
0.8005305039787987
  7
GGATT
  3
Drawing Title [line 1 of 2]:
  2
DWG1
 70
     0
  0
ATTDEF
  5
519F7
  8
TITLE2
 10
-8.0531348495600241
 20
19.997377087394771
 30
0.0
 40
0.364669172630178
  1
N/A
 41
0.8005305039787987
  7
GGATT
  3
Drawing Title [line 2 of 2]:
  2
DWG2
 70
     0
  0
ATTDEF
  5
519F8
  8
TITLE2
 10
-8.0531348495600241
 20
18.782648907222988
 30
0.0
 40
0.3646691726301817
  1
N/A
 41
0.8005305039787907
  7
GGATT
  3
PROJECT Name [line 1 of 2]:
  2
PROJ1
 70
     0
  0
ATTDEF
  5
519F9
  8
TITLE2
 10
-8.0531348495600241
 20
18.174866952839391
 30
0.0
 40
0.3646691726301817
  1
N/A
 41
0.8005305039787907
  7
GGATT
  3
PROJECT Name [line 2 of 2]:
  2
PROJ2
 70
     0
  0
ATTDEF
  5
519FA
  8
TITLE2
 10
-7.2400289630169432
 20
17.452660178461471
 30
0.0
 40
0.2431127817534672
  1
1 of 1
 41
0.8005305039787947
  7
GGATT
  3
PAGE NO. 
  2
PAGE
 70
     0
  0
ATTDEF
  5
519FB
  8
TITLE2
 10
-4.6465973632439086
 20
17.452660178461471
 30
0.0
 40
0.2431127817534672
  1
N/A
 41
0.8005305039787943
  7
GGATT
  3
DATE [DDMMMYY]:
  2
DATE
 70
     0
  0
ATTDEF
  5
519FC
  8
TITLE2
 10
-6.4591596990101721
 20
16.723321833201119
 30
0.0
 40
0.2431127817534691
  1
N/A
 41
0.8005305039787886
  7
GGATT
  3
DESIGN FIRM NAME:
  2
ARCH
 70
     0
  0
ATTDEF
  5
519FD
  8
TITLE2
 10
-6.4591596990101721
 20
15.993983487940779
 30
0.0
 40
0.2431127817534691
  1
N/A
 41
0.8005305039787886
  7
GGATT
  3
CUSTOMER NAME:
  2
CUST
 70
     0
  0
ATTDEF
  5
519FE
  8
TITLE2
 10
-6.4591596990101721
 20
15.26464514268041
 30
0.0
 40
0.2431127817534691
  1
N/A
 41
0.8005305039787886
  7
GGATT
  3
SALES REPRESENTATIVE:
  2
REP
 70
     0
  0
ATTDEF
  5
519FF
  8
TITLE2
 10
-6.134794369508878
 20
14.535306797420059
 30
0.0
 40
0.2431127817534691
  1
N/A
 41
0.8005305039787886
  7
GGATT
  3
PRIMARY SALES OFFICE:
  2
OFFICE
 70
     0
  0
ATTDEF
  5
51A00
  8
TITLE2
 10
-6.8350491287794064
 20
13.805968452159711
 30
0.0
 40
0.2431127817534691
  1
N/A
 41
0.8005305039787959
  7
GGATT
  3
BRICK PRODUCED AT WHAT PLANT ?
  2
PLANT
 70
     0
  0
ATTDEF
  5
51A01
  8
TITLE2
 10
-7.8941287090322687
 20
12.67613005555644
 30
0.0
 40
0.3640857019539519
  1
N/A
 41
0.800530503978797
  7
GGATT
  3
BRICK NAME:
  2
BRICK
 70
     0
  0
ATTDEF
  5
51A02
  8
TITLE2
 10
-6.5720548178487119
 20
12.071218910713309
 30
0.0
 40
0.2431127817534691
  1
N/A
 41
0.8005305039787963
  7
GGATT
  3
MOLDED, EXTRUDED, HANDMADE OR REPRESSED?
  2
PROCESS
 70
     0
  0
ATTDEF
  5
51A03
  8
TITLE2
 10
-4.6258628408409841
 20
12.071218910713309
 30
0.0
 40
0.2431127817534691
  1
N/A
 41
0.8005305039787959
  7
GGATT
  3
FLASHED OR CLEARBURN?
  2
BURN
 70
     0
  0
ATTDEF
  5
51A04
  8
TITLE2
 10
-6.8350491287794064
 20
11.34188056545297
 30
0.0
 40
0.2431127817534691
  1
N/A
 41
0.8005305039787959
  7
GGATT
  3
TEXTURE FOR FINISHED FACES?
  2
TEXT
 70
     0
  0
ATTDEF
  5
51A05
  8
TITLE2
 10
-4.8888571517716954
 20
10.612542220192619
 30
0.0
 40
0.2431127817534709
  1
N/A
 41
0.8005305039787897
  7
GGATT
  3
TOTAL NO. OF FINISHED FACES PER UNIT?
  2
FACE
 70
     0
  0
ATTDEF
  5
51A06
  8
TITLE2
 10
-6.8350491287794064
 20
9.1538655296719522
 30
0.0
 40
0.24311278175347
  1
PLANT OPTION
 41
0.8005305039787929
  7
GGATT
  3
AS SHOWN/UNCORED/PLANT OPTION?
  2
CORING
 70
     0
  0
ATTDEF
  5
51A07
  8
TITLE2
 10
-7.1594144582806889
 20
8.4245271844116036
 30
0.0
 40
0.24311278175347
  1
N/A
 41
0.8005305039787929
  7
GGATT
  3
SIZE OF SURROUNDING BRICK?
  2
SIZE
 70
     0
  0
ATTDEF
  5
51A08
  8
TITLE2
 10
-4.5644918222704121
 20
8.4245271844116036
 30
0.0
 40
0.24311278175347
  1
N/A
 41
0.8005305039787929
  7
GGATT
  3
BOND PATTERN OF SURROUNDING BRICKWORK?
  2
BOND
 70
     0
  0
ATTDEF
  5
51A09
  8
TITLE2
 10
-5.3986184360624421
 20
7.6951888391512613
 30
0.0
 40
0.2431127817534672
  1
C216, FBS, SW
 41
0.8005305039787939
  7
GGATT
  3
ENTER THE ASTM STANDARD ?
  2
ASTM
 70
     0
  0
ATTDEF
  5
51A0A
  8
TITLE2
 10
-5.38301550997038
 20
6.9658504938909109
 30
0.0
 40
0.2431127817534672
  1
N/A
 41
0.8005305039787943
  7
GGATT
  3
COMPUTER FILE [INCLUDE PATH AND DRIVE]:
  2
FILE
 70
     0
  0
ATTDEF
  5
51A0B
  8
TITLE2
 10
-6.1217572415722472
 20
6.2365121486305677
 30
0.0
 40
0.2431127817534672
  1
N/A
 41
0.8005305039787947
  7
GGATT
  3
DRAWN BY:
  2
BY
 70
     0
  0
ATTDEF
  5
51A0C
  8
TITLE2
 10
-5.5583678395734921
 20
9.8530691623312308
 30
0.0
 40
0.2431127817534691
  1
PLANT OPTION
 41
0.8005305039787959
  7
GGATT
  3
AS SHOWN/PLANT OPTION?
  2
TEXTURE
 70
     0
  0
ENDBLK
  5
519AD
  8
0
  0
BLOCK
  8
0
  2
TITLEBLOCK-2018
 70
     2
 10
0.0
 20
0.0
 30
0.0
  3
TITLEBLOCK-2018
  1

  0
TEXT
  5
530A3
  8
TITLE
 10
-20.665040879633459
 20
22.84950118295238
 30
0.0
 40
0.9043244580165586
  1
.
 41
0.5000000000000098
  7
GG
  0
TEXT
  5
530A4
  8
TITLE
 10
-29.57102643300615
 20
22.50308034591276
 30
0.0
 40
0.2702390500332978
  1
Title
 41
0.800530503978795
  7
SIMPLEX
  0
POLYLINE
  5
530A5
  8
TITLE
 66
     1
 10
0.0
 20
0.0
 30
0.0
 40
0.064375
 41
0.064375
  0
VERTEX
  5
53B1C
  8
TITLE
 10
-33.757371477386471
 20
1.089099129173027
 30
0.0
  0
VERTEX
  5
53B1D
  8
TITLE
 10
-2.6182998452608821
 20
1.089099129173027
 30
0.0
  0
SEQEND
  5
53B1E
  8
TITLE
  0
POLYLINE
  5
530A6
  8
TITLE
 66
     1
 10
0.0
 20
0.0
 30
0.0
 40
0.064375
 41
0.064375
  0
VERTEX
  5
53B1F
  8
TITLE
 10
-2.6182998452608821
 20
1.089099129173027
 30
0.0
  0
VERTEX
  5
53B20
  8
TITLE
 10
-2.6182998452608821
 20
24.42792617750569
 30
0.0
  0
SEQEND
  5
53B21
  8
TITLE
  0
POLYLINE
  5
530A7
  8
TITLE
 66
     1
 10
0.0
 20
0.0
 30
0.0
 40
0.064375
 41
0.064375
  0
VERTEX
  5
53B22
  8
TITLE
 10
-2.6182998452608821
 20
24.42792617750569
 30
0.0
  0
VERTEX
  5
53B23
  8
TITLE
 10
-33.757371477386471
 20
24.42792617750569
 30
0.0
  0
SEQEND
  5
53B24
  8
TITLE
  0
POLYLINE
  5
530A8
  8
TITLE
 66
     1
 10
0.0
 20
0.0
 30
0.0
 40
0.064375
 41
0.064375
  0
VERTEX
  5
53B25
  8
TITLE
 10
-33.757371477386471
 20
24.42792617750569
 30
0.0
  0
VERTEX
  5
53B26
  8
TITLE
 10
-33.757371477386471
 20
1.089099129173027
 30
0.0
  0
SEQEND
  5
53B27
  8
TITLE
  0
POLYLINE
  5
530A9
  8
TITLE
 66
     1
 10
0.0
 20
0.0
 30
0.0
 40
0.064375
 41
0.064375
  0
VERTEX
  5
53B28
  8
TITLE
 10
-8.4568757762866476
 20
24.42792617750569
 30
0.0
  0
VERTEX
  5
53B29
  8
TITLE
 10
-8.4568757762866476
 20
1.089099129173027
 30
0.0
  0
SEQEND
  5
53B2A
  8
TITLE
  0
LINE
  5
530AA
  8
TITLE
 10
-8.4568757762866476
 20
21.516831973353781
 30
0.0
 11
-2.6182998452608821
 21
21.516831973353781
 31
0.0
  0
LINE
  5
530AB
  8
TITLE
 10
-8.4568757762866476
 20
19.762367964026559
 30
0.0
 11
-2.6182998452608821
 21
19.762367964026559
 31
0.0
  0
LINE
  5
530AC
  8
TITLE
 10
-8.4568757762866476
 20
17.938885741967919
 30
0.0
 11
-2.6182998452608821
 21
17.938885741967919
 31
0.0
  0
LINE
  5
530AD
  8
TITLE
 10
-8.4568757762866476
 20
17.209547396707599
 30
0.0
 11
-2.6182998452608821
 21
17.209547396707599
 31
0.0
  0
LINE
  5
530AE
  8
TITLE
 10
-8.4568757762866476
 20
16.480209051447272
 30
0.0
 11
-2.6182998452608821
 21
16.480209051447272
 31
0.0
  0
LINE
  5
530AF
  8
TITLE
 10
-8.4568757762866476
 20
15.75087070618695
 30
0.0
 11
-2.6182998452608821
 21
15.75087070618695
 31
0.0
  0
LINE
  5
530B0
  8
TITLE
 10
-8.4568757762866476
 20
15.02153236092663
 30
0.0
 11
-2.6182998452608821
 21
15.02153236092663
 31
0.0
  0
LINE
  5
530B1
  8
TITLE
 10
-8.4568757762866476
 20
14.292194015666309
 30
0.0
 11
-2.6182998452608821
 21
14.292194015666309
 31
0.0
  0
LINE
  5
530B2
  8
TITLE
 10
-8.4568757762866476
 20
13.562855670405989
 30
0.0
 11
-2.6182998452608821
 21
13.562855670405989
 31
0.0
  0
LINE
  5
530B3
  8
TITLE
 10
-8.4568757762866476
 20
12.557444474219951
 30
0.0
 11
-2.6182998452608821
 21
12.557444474219951
 31
0.0
  0
LINE
  5
530B4
  8
TITLE
 10
-8.4568757762866476
 20
11.828106128959631
 30
0.0
 11
-2.6182998452608821
 21
11.828106128959631
 31
0.0
  0
LINE
  5
530B5
  8
TITLE
 10
-8.4568757762866476
 20
11.09876778369931
 30
0.0
 11
-2.6182998452608821
 21
11.09876778369931
 31
0.0
  0
LINE
  5
530B6
  8
TITLE
 10
-8.4568757762866476
 20
9.6400910931786612
 30
0.0
 11
-2.6182998452608821
 21
9.6400910931786612
 31
0.0
  0
LINE
  5
530B7
  8
TITLE
 10
-8.4568757762866476
 20
8.910752747918341
 30
0.0
 11
-2.6182998452608821
 21
8.910752747918341
 31
0.0
  0
LINE
  5
530B8
  8
TITLE
 10
-8.4568757762866476
 20
8.1814144026580191
 30
0.0
 11
-2.6182998452608821
 21
8.1814144026580191
 31
0.0
  0
LINE
  5
530B9
  8
TITLE
 10
-8.4568757762866476
 20
7.4520760573976954
 30
0.0
 11
-2.6182998452608821
 21
7.4520760573976954
 31
0.0
  0
LINE
  5
530BA
  8
TITLE
 10
-8.4568757762866476
 20
6.7227377121373726
 30
0.0
 11
-2.6182998452608821
 21
6.7227377121373726
 31
0.0
  0
POLYLINE
  5
530BB
  8
TITLE
 66
     1
 10
0.0
 20
0.0
 30
0.0
 40
0.064375
 41
0.064375
  0
VERTEX
  5
53B2B
  8
TITLE
 10
-8.4568757762866476
 20
5.9933993668768384
 30
0.0
  0
VERTEX
  5
53B2C
  8
TITLE
 10
-2.6182998452608821
 20
5.9933993668768384
 30
0.0
  0
SEQEND
  5
53B2D
  8
TITLE
  0
TEXT
  5
530BC
  8
TITLE
 10
-8.2136017791606992
 20
21.152162800723609
 30
0.0
 40
0.233388270483323
  1
DRAWING:
 41
0.6671087533156612
  7
GG
  0
TEXT
  5
530BD
  8
TITLE
 10
-8.2136017791606992
 20
19.329652666168229
 30
0.0
 40
0.233388270483323
  1
PROJECT:
 41
0.6671087533156612
  7
GG
  0
TEXT
  5
530BE
  8
TITLE
 10
-8.2136017791606992
 20
17.574216569337761
 30
0.0
 40
0.2333882704833194
  1
PAGE:
 41
0.6671087533156717
  7
GG
  0
TEXT
  5
530BF
  8
TITLE
 10
-5.6073411886106683
 20
17.574216569337761
 30
0.0
 40
0.2333882704833194
  1
DATE:
 41
0.6671087533156714
  7
GG
  0
TEXT
  5
530C0
  8
TITLE
 10
-8.2136017791606992
 20
16.84487822407743
 30
0.0
 40
0.233388270483323
  1
ARCHITECT:
 41
0.6671087533156612
  7
GG
  0
TEXT
  5
530C1
  8
TITLE
 10
-8.2136017791606992
 20
16.11553987881712
 30
0.0
 40
0.2333882704833212
  1
CUSTOMER:
 41
0.6671087533156664
  7
GG
  0
TEXT
  5
530C2
  8
TITLE
 10
-8.2136017791606992
 20
15.38620153355679
 30
0.0
 40
0.2333882704833212
  1
SALES REP:
 41
0.6671087533156664
  7
GG
  0
TEXT
  5
530C3
  8
TITLE
 10
-8.2136017791606992
 20
14.65686318829647
 30
0.0
 40
0.2333882704833212
  1
SALES OFFICE:
 41
0.6671087533156664
  7
GG
  0
TEXT
  5
530C4
  8
TITLE
 10
-8.2136017791606992
 20
13.92752484303614
 30
0.0
 40
0.233388270483323
  1
PLANT:
 41
0.6671087533156612
  7
GG
  0
TEXT
  5
530C5
  8
TITLE
 10
-8.2136017791606992
 20
13.19818649777582
 30
0.0
 40
0.2333882704833212
  1
BRICK NAME:
 41
0.6671087533156664
  7
GG
  0
TEXT
  5
530C6
  8
TITLE
 10
-8.2136017791606992
 20
12.192775301589791
 30
0.0
 40
0.2333882704833212
  1
BRICK TYPE:
 41
0.6671087533156664
  7
GG
  0
TEXT
  5
530C7
  8
TITLE
 10
-8.2136017791606992
 20
11.46343695632947
 30
0.0
 40
0.2333882704833212
  1
TEXTURE:
 41
0.6671087533156664
  7
GG
  0
TEXT
  5
530C8
  8
TITLE
 10
-8.2136017791606992
 20
9.2754219205485011
 30
0.0
 40
0.2333882704833212
  1
CORING:
 41
0.6671087533156664
  7
GG
  0
TEXT
  5
530C9
  8
TITLE
 10
-8.2136017791606992
 20
8.5460835752881792
 30
0.0
 40
0.2333882704833212
  1
SIZE:
 41
0.8005305039787968
  7
SIMPLEX
  0
TEXT
  5
530CA
  8
TITLE
 10
-5.5945121978335273
 20
8.5460835752881792
 30
0.0
 40
0.2333882704833212
  1
BOND:
 41
0.8005305039787968
  7
SIMPLEX
  0
TEXT
  5
530CB
  8
TITLE
 10
-8.2136017791606992
 20
7.8167452300278573
 30
0.0
 40
0.2333882704833221
  1
ASTM STANDARD:
 41
0.8005305039787938
  7
SIMPLEX
  0
TEXT
  5
530CC
  8
TITLE
 10
-8.2136017791606992
 20
7.0874068847675344
 30
0.0
 40
0.2333882704833221
  1
COMPUTER FILE:
 41
0.8005305039787938
  7
SIMPLEX
  0
TEXT
  5
530CD
  8
TITLE
 10
-8.2136017791606992
 20
6.3580685395072098
 30
0.0
 40
0.2333882704833221
  1
DRAWN BY:
 41
0.8005305039787938
  7
SIMPLEX
  0
TEXT
  5
530CE
  8
TITLE
 10
-8.1819323313537815
 20
10.78160029004715
 30
0.0
 40
0.2333882704833212
  1
NUMBER OF
 41
0.8005305039787968
  7
SIMPLEX
  0
TEXT
  5
530CF
  8
TITLE
 10
-8.1254847719344951
 20
10.443197090522339
 30
0.0
 40
0.233388270483323
  1
FINISHED FACES:
 41
0.8005305039787904
  7
SIMPLEX
  0
TEXT
  5
530D0
  8
TITLE
 10
-8.3515441957258254
 20
5.623390379414321
 30
0.0
 40
0.2567270975316337
  1
This document is the property 
 41
0.8005305039787934
  7
SIMPLEX
  0
TEXT
  5
530D1
  8
TITLE
 10
-8.3515441957258254
 20
5.1255361282437493
 30
0.0
 40
0.2567270975316355
  1
of GLEN-GERY CORPORATION and
 41
0.8005305039787876
  7
SIMPLEX
  0
TEXT
  5
530D2
  8
TITLE
 10
-8.3515441957258254
 20
4.6996163523143757
 30
0.0
 40
0.2567270975316355
  1
may not be reproduced without
 41
0.8005305039787876
  7
SIMPLEX
  0
TEXT
  5
530D3
  8
TITLE
 10
-8.3515441957258254
 20
4.2377293387644093
 30
0.0
 40
0.2567270975316318
  1
written permission from the
 41
0.8005305039787991
  7
SIMPLEX
  0
TEXT
  5
530D4
  8
TITLE
 10
-8.3515441957258254
 20
3.7933399002731081
 30
0.0
 40
0.2567270975316337
  1
appropriate Glen-Gery 
 41
0.8005305039787934
  7
SIMPLEX
  0
TEXT
  5
530D5
  8
TITLE
 10
-8.3515441957258254
 20
3.3683922118469991
 30
0.0
 40
0.2567270975316337
  1
Representative. The contents 
 41
0.8005305039787934
  7
SIMPLEX
  0
TEXT
  5
530D6
  8
TITLE
 10
-8.3515441957258254
 20
2.943444523420891
 30
0.0
 40
0.2567270975316337
  1
of this document are advisory 
 41
0.8005305039787934
  7
SIMPLEX
  0
TEXT
  5
530D7
  8
TITLE
 10
-8.3515441957258254
 20
2.517524747491525
 30
0.0
 40
0.2567270975316337
  1
only. Responsibility for 
 41
0.8005305039787934
  7
SIMPLEX
  0
TEXT
  5
530D8
  8
TITLE
 10
-8.3515441957258254
 20
2.110074634124087
 30
0.0
 40
0.2567270975316337
  1
accuracy and applicability lies 
 41
0.8005305039787934
  7
SIMPLEX
  0
TEXT
  5
530D9
  8
TITLE
 10
-8.3268928293692142
 20
1.6306900455154449
 30
0.0
 40
0.2567270975316337
  1
entirely with the Project 
 41
0.8005305039787938
  7
SIMPLEX
  0
TEXT
  5
530DA
  8
TITLE
 10
-8.3515441957258254
 20
1.2417095947099399
 30
0.0
 40
0.2567270975316337
  1
Designer and/or Owner.
 41
0.8005305039787934
  7
SIMPLEX
  0
TEXT
  5
530DB
  8
TITLE
 10
-33.589233693619683
 20
22.53503235919726
 30
0.0
 40
0.2567270975316355
  1
Signature
 41
0.8005305039787874
  7
SIMPLEX
  0
TEXT
  5
530DC
  8
TITLE
 10
-33.652039896825642
 20
23.560062938872601
 30
0.0
 40
0.2917353381041299
  1
faces, and specifications and I agree to them.
 41
0.8005305039787916
  7
SIMPLEX
  0
TEXT
  5
530DD
  8
TITLE
 10
-33.652039896825642
 20
24.05791719004317
 30
0.0
 40
0.2917353381041263
  1
This drawing has been reviewed for dimensions,
 41
0.8005305039788017
  7
SIMPLEX
  0
LINE
  5
530DE
  8
TITLE
 10
-33.726699250059887
 20
22.838521489005618
 30
0.0
 11
-23.814614652752169
 21
22.838521489005618
 31
0.0
  0
TEXT
  5
530DF
  8
TITLE
 10
-26.179633573930641
 20
22.53503235919726
 30
0.0
 40
0.2567270975316355
  1
Date
 41
0.8005305039787879
  7
SIMPLEX
  0
POLYLINE
  5
530E0
  8
TITLE
 66
     1
 10
0.0
 20
0.0
 30
0.0
 40
0.064375
 41
0.064375
  0
VERTEX
  5
53B2E
  8
TITLE
 10
-33.757371477386471
 20
22.369781862573198
 30
0.0
  0
VERTEX
  5
53B2F
  8
TITLE
 10
-23.814614652752169
 20
22.369781862573198
 30
0.0
  0
SEQEND
  5
53B30
  8
TITLE
  0
POLYLINE
  5
530E1
  8
TITLE
 66
     1
 10
0.0
 20
0.0
 30
0.0
 40
0.064375
 41
0.064375
  0
VERTEX
  5
53B31
  8
TITLE
 10
-23.814614652752169
 20
22.369781862573198
 30
0.0
  0
VERTEX
  5
53B32
  8
TITLE
 10
-23.814614652752169
 20
24.42792617750569
 30
0.0
  0
SEQEND
  5
53B33
  8
TITLE
  0
TEXT
  5
530E2
  8
TITLE
 10
-8.2136017791606992
 20
10.004760265808819
 30
0.0
 40
0.233388270483323
  1
TEXTURE DIRECTION:
 41
0.6671087533156612
  7
GG
  0
LINE
  5
530E3
  8
TITLE
 10
-8.4568757762866476
 20
10.36942943843898
 30
0.0
 11
-2.6182998452608821
 21
10.36942943843898
 31
0.0
  0
POLYLINE
  5
530E4
  8
TITLE
 66
     1
 10
0.0
 20
0.0
 30
0.0
 40
0.064375
 41
0.064375
  0
VERTEX
  5
53B34
  8
TITLE
 10
-23.814614652752169
 20
22.369781862573198
 30
0.0
  0
VERTEX
  5
53B35
  8
TITLE
 10
-16.491537129062579
 20
22.369781862573198
 30
0.0
  0
SEQEND
  5
53B36
  8
TITLE
  0
LINE
  5
530E5
  8
TITLE
 10
-16.491537129062579
 20
22.369781862573198
 30
0.0
 11
-16.491537129062579
 21
24.42792617750569
 31
0.0
  0
TEXT
  5
530E6
  8
TITLE
 10
-23.533946274646311
 20
23.00930532082182
 30
0.0
 40
0.7001648114499104
  1
Qty :
 41
0.8005305039787931
  7
SIMPLEX
  0
LINE
  5
530E7
  8
TITLE
 10
-21.128102672234618
 20
22.742173676513961
 30
0.0
 11
-16.76655935776051
 21
22.742173676513961
 31
0.0
  0
INSERT
  5
530EA
  8
OBJ
  6
CONTINUOUS
  2
*X5
 10
0.0
 20
0.0
 30
0.0
1001
GRADIENTCOLOR1ACI
1070
     5
1001
GRADIENTCOLOR2ACI
1070
     2
1001
ACAD
1000
HATCH
1002
{
1070
    19
1000
DOTS
1040
1.5
1040
0.7853981633974483
1000
R14_HATCH_DATA
1000
530EA
1011
1.0
1021
0.0
1031
0.0
1021
0.0
1031
0.0
1011
0.0
1021
0.0
1031
0.0
1021
1.0
1031
0.0
1011
0.0
1021
0.0
1031
0.0
1021
0.0
1031
1.0
1040
0.0
1010
0.0
1020
0.0
1030
1.0
1000
DOTS
1070
     0
1070
     0
1071
        1
1071
        7
1070
     0
1070
     1
1071
        4
1040
-12.930367893744201
1040
1.9719754486128021
1040
-14.267875802385451
1040
1.9719754486128021
1040
-14.267875802385451
1040
1.425751060868542
1040
-12.930367893744201
1040
1.425751060868542
1071
        0
1070
     0
1070
     1
1040
0.7853981633974483
1040
1.5
1070
     0
1070
     1
1040
0.7853981633974483
1040
-5.9487560291120474
1040
-8.3020536761480557
1040
-0.0331456303681194
1040
0.0994368911043583
1070
     2
1040
0.0
1040
-0.09375
1040
0.0086172707574623
1071
        1
1040
-13.613723308614169
1040
1.7482070657834681
1040
0.0
1002
}
  0
LINE
  5
530EB
  8
TITLE2
 10
-14.267875802385451
 20
1.9719754486128021
 30
0.0
 11
-14.267875802385451
 21
1.425751060868542
 31
0.0
  0
LINE
  5
530EC
  8
TITLE2
 10
-14.267875802385451
 20
1.425751060868542
 30
0.0
 11
-12.930367893744201
 21
1.425751060868542
 31
0.0
  0
LINE
  5
530ED
  8
TITLE2
 10
-12.930367893744201
 20
1.425751060868542
 30
0.0
 11
-12.930367893744201
 21
1.9719754486128021
 31
0.0
  0
LINE
  5
530EE
  8
TITLE2
 10
-12.930367893744201
 20
1.9719754486128021
 30
0.0
 11
-14.267875802385451
 21
1.9719754486128021
 31
0.0
  0
TEXT
  5
530EF
  8
TITLE
 10
-12.770839099065819
 20
1.5709411158406359
 30
0.0
 40
0.2567270975316355
  1
INDICATES FINISHED FACES
 41
0.8005305039787876
  7
SIMPLEX
  0
ATTDEF
  5
530F0
  8
TITLE2
 10
-8.0531348495600241
 20
20.605159041778379
 30
0.0
 40
0.364669172630178
  1
N/A
 41
0.8005305039787987
  7
GGATT
  3
Drawing Title [line 1 of 2]:
  2
DWG1
 70
     0
  0
ATTDEF
  5
530F1
  8
TITLE2
 10
-8.0531348495600241
 20
19.997377087394771
 30
0.0
 40
0.364669172630178
  1
N/A
 41
0.8005305039787987
  7
GGATT
  3
Drawing Title [line 2 of 2]:
  2
DWG2
 70
     0
  0
ATTDEF
  5
530F2
  8
TITLE2
 10
-8.0531348495600241
 20
18.782648907222988
 30
0.0
 40
0.3646691726301817
  1
N/A
 41
0.8005305039787907
  7
GGATT
  3
PROJECT Name [line 1 of 2]:
  2
PROJ1
 70
     0
  0
ATTDEF
  5
530F3
  8
TITLE2
 10
-8.0531348495600241
 20
18.174866952839391
 30
0.0
 40
0.3646691726301817
  1
N/A
 41
0.8005305039787907
  7
GGATT
  3
PROJECT Name [line 2 of 2]:
  2
PROJ2
 70
     0
  0
ATTDEF
  5
530F4
  8
TITLE2
 10
-7.2400289630169432
 20
17.452660178461471
 30
0.0
 40
0.2431127817534672
  1
1 of 1
 41
0.8005305039787947
  7
GGATT
  3
PAGE NO. 
  2
PAGE
 70
     0
  0
ATTDEF
  5
530F5
  8
TITLE2
 10
-4.6465973632439086
 20
17.452660178461471
 30
0.0
 40
0.2431127817534672
  1
N/A
 41
0.8005305039787943
  7
GGATT
  3
DATE [DDMMMYY]:
  2
DATE
 70
     0
  0
ATTDEF
  5
530F6
  8
TITLE2
 10
-6.4591596990101721
 20
16.723321833201119
 30
0.0
 40
0.2431127817534691
  1
N/A
 41
0.8005305039787886
  7
GGATT
  3
DESIGN FIRM NAME:
  2
ARCH
 70
     0
  0
ATTDEF
  5
530F7
  8
TITLE2
 10
-6.4591596990101721
 20
15.993983487940779
 30
0.0
 40
0.2431127817534691
  1
N/A
 41
0.8005305039787886
  7
GGATT
  3
CUSTOMER NAME:
  2
CUST
 70
     0
  0
ATTDEF
  5
530F8
  8
TITLE2
 10
-6.4591596990101721
 20
15.26464514268041
 30
0.0
 40
0.2431127817534691
  1
N/A
 41
0.8005305039787886
  7
GGATT
  3
SALES REPRESENTATIVE:
  2
REP
 70
     0
  0
ATTDEF
  5
530F9
  8
TITLE2
 10
-6.134794369508878
 20
14.535306797420059
 30
0.0
 40
0.2431127817534691
  1
N/A
 41
0.8005305039787886
  7
GGATT
  3
PRIMARY SALES OFFICE:
  2
OFFICE
 70
     0
  0
ATTDEF
  5
530FA
  8
TITLE2
 10
-6.8350491287794064
 20
13.805968452159711
 30
0.0
 40
0.2431127817534691
  1
N/A
 41
0.8005305039787959
  7
GGATT
  3
BRICK PRODUCED AT WHAT PLANT ?
  2
PLANT
 70
     0
  0
ATTDEF
  5
530FB
  8
TITLE2
 10
-7.8941287090322687
 20
12.67613005555644
 30
0.0
 40
0.3640857019539519
  1
N/A
 41
0.800530503978797
  7
GGATT
  3
BRICK NAME:
  2
BRICK
 70
     0
  0
ATTDEF
  5
530FC
  8
TITLE2
 10
-6.5720548178487119
 20
12.071218910713309
 30
0.0
 40
0.2431127817534691
  1
N/A
 41
0.8005305039787963
  7
GGATT
  3
MOLDED, EXTRUDED, HANDMADE OR REPRESSED?
  2
PROCESS
 70
     0
  0
ATTDEF
  5
530FD
  8
TITLE2
 10
-4.6258628408409841
 20
12.071218910713309
 30
0.0
 40
0.2431127817534691
  1
N/A
 41
0.8005305039787959
  7
GGATT
  3
FLASHED OR CLEARBURN?
  2
BURN
 70
     0
  0
ATTDEF
  5
530FE
  8
TITLE2
 10
-6.8350491287794064
 20
11.34188056545297
 30
0.0
 40
0.2431127817534691
  1
N/A
 41
0.8005305039787959
  7
GGATT
  3
TEXTURE FOR FINISHED FACES?
  2
TEXT
 70
     0
  0
ATTDEF
  5
530FF
  8
TITLE2
 10
-4.8888571517716954
 20
10.612542220192619
 30
0.0
 40
0.2431127817534709
  1
N/A
 41
0.8005305039787897
  7
GGATT
  3
TOTAL NO. OF FINISHED FACES PER UNIT?
  2
FACE
 70
     0
  0
ATTDEF
  5
53100
  8
TITLE2
 10
-6.8350491287794064
 20
9.1538655296719522
 30
0.0
 40
0.24311278175347
  1
PLANT OPTION
 41
0.8005305039787929
  7
GGATT
  3
AS SHOWN/UNCORED/PLANT OPTION?
  2
CORING
 70
     0
  0
ATTDEF
  5
53101
  8
TITLE2
 10
-7.1594144582806889
 20
8.4245271844116036
 30
0.0
 40
0.24311278175347
  1
N/A
 41
0.8005305039787929
  7
GGATT
  3
SIZE OF SURROUNDING BRICK?
  2
SIZE
 70
     0
  0
ATTDEF
  5
53102
  8
TITLE2
 10
-4.5644918222704121
 20
8.4245271844116036
 30
0.0
 40
0.24311278175347
  1
N/A
 41
0.8005305039787929
  7
GGATT
  3
BOND PATTERN OF SURROUNDING BRICKWORK?
  2
BOND
 70
     0
  0
ATTDEF
  5
53103
  8
TITLE2
 10
-5.3986184360624421
 20
7.6951888391512613
 30
0.0
 40
0.2431127817534672
  1
C216, FBS, SW
 41
0.8005305039787939
  7
GGATT
  3
ENTER THE ASTM STANDARD ?
  2
ASTM
 70
     0
  0
ATTDEF
  5
53104
  8
TITLE2
 10
-5.38301550997038
 20
6.9658504938909109
 30
0.0
 40
0.2431127817534672
  1
N/A
 41
0.8005305039787943
  7
GGATT
  3
COMPUTER FILE [INCLUDE PATH AND DRIVE]:
  2
FILE
 70
     0
  0
ATTDEF
  5
53105
  8
TITLE2
 10
-6.1217572415722472
 20
6.2365121486305677
 30
0.0
 40
0.2431127817534672
  1
N/A
 41
0.8005305039787947
  7
GGATT
  3
DRAWN BY:
  2
BY
 70
     0
  0
ATTDEF
  5
53106
  8
TITLE2
 10
-5.5583678395734921
 20
9.8530691623312308
 30
0.0
 40
0.2431127817534691
  1
PLANT OPTION
 41
0.8005305039787959
  7
GGATT
  3
AS SHOWN/PLANT OPTION?
  2
TEXTURE
 70
     0
  0
ENDBLK
  5
52FC1
  8
0
  0
BLOCK
  8
0
  2
LOGO
 70
     0
 10
0.0
 20
0.0
 30
0.0
  3
LOGO
  1

  0
ENDBLK
  5
534E5
  8
0
  0
BLOCK
  8
0
  2
TITLEB2
 70
     2
 10
0.0
 20
0.0
 30
0.0
  3
TITLEB2
  1

  0
ATTDEF
  5
534E8
  8
TITLE2
 10
0.8254657342228032
 20
0.8362056872948777
 30
0.0
 40
0.0156250000000008
  1
N/A
 41
0.6000000000000098
  7
GGATT
  3
Drawing Title [line 1 of 2]:
  2
DWG1
 70
     0
  0
ATTDEF
  5
534E9
  8
TITLE2
 10
0.8254657342228032
 20
0.8101640206282113
 30
0.0
 40
0.0156250000000008
  1
N/A
 41
0.6000000000000098
  7
GGATT
  3
Drawing Title [line 2 of 2]:
  2
DWG2
 70
     0
  0
ATTDEF
  5
534EA
  8
TITLE2
 10
0.8254657342228032
 20
0.75811649580375
 30
0.0
 40
0.0156250000000008
  1
N/A
 41
0.6000000000000098
  7
GGATT
  3
PROJECT Name [line 1 of 2]:
  2
PROJ1
 70
     0
  0
ATTDEF
  5
534EB
  8
TITLE2
 10
0.8254657342228032
 20
0.7320748291370836
 30
0.0
 40
0.0156250000000008
  1
N/A
 41
0.6000000000000098
  7
GGATT
  3
PROJECT Name [line 2 of 2]:
  2
PROJ2
 70
     0
  0
ATTDEF
  5
534EC
  8
TITLE2
 10
0.8515778128405968
 20
0.7011303959450311
 30
0.0
 40
0.0104166666666678
  1
1 of 1
 41
0.6000000000000098
  7
GGATT
  3
PAGE NO. 
  2
PAGE
 70
     0
  0
ATTDEF
  5
534ED
  8
TITLE2
 10
0.9348632630432193
 20
0.7011303959450311
 30
0.0
 40
0.0104166666666678
  1
N/A
 41
0.6000000000000098
  7
GGATT
  3
DATE [DDMMMYY]:
  2
DATE
 70
     0
  0
ATTDEF
  5
534EE
  8
TITLE2
 10
0.8766546447138129
 20
0.6698803959450302
 30
0.0
 40
0.0104166666666678
  1
N/A
 41
0.6000000000000098
  7
GGATT
  3
DESIGN FIRM NAME:
  2
ARCH
 70
     0
  0
ATTDEF
  5
534EF
  8
TITLE2
 10
0.8766546447138129
 20
0.6386303959450294
 30
0.0
 40
0.0104166666666678
  1
N/A
 41
0.6000000000000098
  7
GGATT
  3
CUSTOMER NAME:
  2
CUST
 70
     0
  0
ATTDEF
  5
534F0
  8
TITLE2
 10
0.8766546447138129
 20
0.6073803959450271
 30
0.0
 40
0.0104166666666678
  1
N/A
 41
0.6000000000000098
  7
GGATT
  3
SALES REPRESENTATIVE:
  2
REP
 70
     0
  0
ATTDEF
  5
534F1
  8
TITLE2
 10
0.8870713113804802
 20
0.576130395945026
 30
0.0
 40
0.0104166666666678
  1
N/A
 41
0.6000000000000098
  7
GGATT
  3
PRIMARY SALES OFFICE:
  2
OFFICE
 70
     0
  0
ATTDEF
  5
534F2
  8
TITLE2
 10
0.8645833333333708
 20
0.5448803959450251
 30
0.0
 40
0.0104166666666679
  1
N/A
 41
0.6000000000000098
  7
GGATT
  3
BRICK PRODUCED AT WHAT PLANT ?
  2
PLANT
 70
     0
  0
ATTDEF
  5
534F3
  8
TITLE2
 10
0.8305720566721767
 20
0.4964701483236003
 30
0.0
 40
0.0156
  1
N/A
 41
0.6000000000000098
  7
GGATT
  3
BRICK NAME:
  2
BRICK
 70
     0
  0
ATTDEF
  5
534F4
  8
TITLE2
 10
0.8730291313981853
 20
0.4705514873904495
 30
0.0
 40
0.0104166666666679
  1
N/A
 41
0.6000000000000098
  7
GGATT
  3
MOLDED, EXTRUDED, HANDMADE OR REPRESSED?
  2
PROCESS
 70
     0
  0
ATTDEF
  5
534F5
  8
TITLE2
 10
0.9355291313981876
 20
0.4705514873904495
 30
0.0
 40
0.0104166666666679
  1
N/A
 41
0.6000000000000098
  7
GGATT
  3
FLASHED OR CLEARBURN?
  2
BURN
 70
     0
  0
ATTDEF
  5
534F6
  8
TITLE2
 10
0.8645833333333708
 20
0.4393014873904485
 30
0.0
 40
0.0104166666666679
  1
N/A
 41
0.6000000000000098
  7
GGATT
  3
TEXTURE FOR FINISHED FACES?
  2
TEXT
 70
     0
  0
ATTDEF
  5
534F7
  8
TITLE2
 10
0.9270833333333728
 20
0.4080514873904474
 30
0.0
 40
0.0104166666666679
  1
N/A
 41
0.6000000000000098
  7
GGATT
  3
TOTAL NO. OF FINISHED FACES PER UNIT?
  2
FACE
 70
     0
  0
ATTDEF
  5
534F8
  8
TITLE2
 10
0.8645833333333708
 20
0.3455514873904464
 30
0.0
 40
0.0104166666666679
  1
PLANT OPTION
 41
0.6000000000000098
  7
GGATT
  3
AS SHOWN/UNCORED/PLANT OPTION?
  2
CORING
 70
     0
  0
ATTDEF
  5
534F9
  8
TITLE2
 10
0.854166666666704
 20
0.3143014873904452
 30
0.0
 40
0.0104166666666679
  1
N/A
 41
0.6000000000000098
  7
GGATT
  3
SIZE OF SURROUNDING BRICK?
  2
SIZE
 70
     0
  0
ATTDEF
  5
534FA
  8
TITLE2
 10
0.9375000000000396
 20
0.3143014873904452
 30
0.0
 40
0.0104166666666679
  1
N/A
 41
0.6000000000000098
  7
GGATT
  3
BOND PATTERN OF SURROUNDING BRICKWORK?
  2
BOND
 70
     0
  0
ATTDEF
  5
534FB
  8
TITLE2
 10
0.9107128618461979
 20
0.2830514873904443
 30
0.0
 40
0.0104166666666678
  1
C216, FBS, SW
 41
0.6000000000000098
  7
GGATT
  3
ENTER THE ASTM STANDARD ?
  2
ASTM
 70
     0
  0
ATTDEF
  5
534FC
  8
TITLE2
 62
     5
 10
0.9112139341413647
 20
0.2518014873904432
 30
0.0
 40
0.0104166666666678
  1
N/A
 41
0.6000000000000098
  7
GGATT
  3
COMPUTER FILE [INCLUDE PATH AND DRIVE]:
  2
FILE
 70
     0
  0
ATTDEF
  5
534FD
  8
TITLE2
 10
0.8874899856457457
 20
0.2205514873904423
 30
0.0
 40
0.0104166666666678
  1
N/A
 41
0.6000000000000098
  7
GGATT
  3
DRAWN BY:
  2
BY
 70
     0
  0
POLYLINE
  5
534FE
  8
TITLE
 66
     1
 10
0.0
 20
0.0
 30
0.0
 70
     1
 40
0.0025
 41
0.0025
  0
VERTEX
  5
53B9C
  8
TITLE
 10
0.0
 20
0.0
 30
0.0
  0
VERTEX
  5
53B9D
  8
TITLE
 10
1.000000000000099
 20
0.0
 30
0.0
  0
VERTEX
  5
53B9E
  8
TITLE
 10
1.000000000000099
 20
1.000000000000099
 30
0.0
  0
VERTEX
  5
53B9F
  8
TITLE
 10
0.0
 20
1.000000000000099
 30
0.0
  0
SEQEND
  5
53BA0
  8
TITLE
  0
POLYLINE
  5
534FF
  8
TITLE
 66
     1
 10
0.0
 20
0.0
 30
0.0
 40
0.0025
 41
0.0025
  0
VERTEX
  5
53BA1
  8
TITLE
 10
0.8125000000000099
 20
1.000000000000099
 30
0.0
  0
VERTEX
  5
53BA2
  8
TITLE
 10
0.8125000000000099
 20
0.0
 30
0.0
  0
SEQEND
  5
53BA3
  8
TITLE
  0
POLYLINE
  5
53500
  8
TITLE
 66
     1
 10
0.0
 20
0.0
 30
0.0
  0
VERTEX
  5
53BA4
  8
TITLE
 10
0.8125000000000099
 20
0.8752681872948778
 30
0.0
  0
VERTEX
  5
53BA5
  8
TITLE
 10
1.000000000000099
 20
0.8752681872948778
 30
0.0
  0
SEQEND
  5
53BA6
  8
TITLE
  0
POLYLINE
  5
53501
  8
TITLE
 66
     1
 10
0.0
 20
0.0
 30
0.0
  0
VERTEX
  5
53BA7
  8
TITLE
 10
0.8125000000000099
 20
0.8000945718559336
 30
0.0
  0
VERTEX
  5
53BA8
  8
TITLE
 10
1.000000000000099
 20
0.8000945718559336
 30
0.0
  0
SEQEND
  5
53BA9
  8
TITLE
  0
POLYLINE
  5
53502
  8
TITLE
 66
     1
 10
0.0
 20
0.0
 30
0.0
  0
VERTEX
  5
53BAA
  8
TITLE
 10
0.8125000000000099
 20
0.721963729278346
 30
0.0
  0
VERTEX
  5
53BAB
  8
TITLE
 10
1.000000000000099
 20
0.721963729278346
 30
0.0
  0
SEQEND
  5
53BAC
  8
TITLE
  0
POLYLINE
  5
53503
  8
TITLE
 66
     1
 10
0.0
 20
0.0
 30
0.0
  0
VERTEX
  5
53BAD
  8
TITLE
 10
0.8125000000000099
 20
0.690713729278346
 30
0.0
  0
VERTEX
  5
53BAE
  8
TITLE
 10
1.000000000000099
 20
0.690713729278346
 30
0.0
  0
SEQEND
  5
53BAF
  8
TITLE
  0
POLYLINE
  5
53504
  8
TITLE
 66
     1
 10
0.0
 20
0.0
 30
0.0
  0
VERTEX
  5
53BB0
  8
TITLE
 10
0.8125000000000099
 20
0.659463729278346
 30
0.0
  0
VERTEX
  5
53BB1
  8
TITLE
 10
1.000000000000099
 20
0.659463729278346
 30
0.0
  0
SEQEND
  5
53BB2
  8
TITLE
  0
POLYLINE
  5
53505
  8
TITLE
 66
     1
 10
0.0
 20
0.0
 30
0.0
  0
VERTEX
  5
53BB3
  8
TITLE
 10
0.8125000000000099
 20
0.628213729278346
 30
0.0
  0
VERTEX
  5
53BB4
  8
TITLE
 10
1.000000000000099
 20
0.628213729278346
 30
0.0
  0
SEQEND
  5
53BB5
  8
TITLE
  0
POLYLINE
  5
53506
  8
TITLE
 66
     1
 10
0.0
 20
0.0
 30
0.0
  0
VERTEX
  5
53BB6
  8
TITLE
 10
0.8125000000000099
 20
0.596963729278346
 30
0.0
  0
VERTEX
  5
53BB7
  8
TITLE
 10
1.000000000000099
 20
0.596963729278346
 30
0.0
  0
SEQEND
  5
53BB8
  8
TITLE
  0
POLYLINE
  5
53507
  8
TITLE
 66
     1
 10
0.0
 20
0.0
 30
0.0
  0
VERTEX
  5
53BB9
  8
TITLE
 10
0.8125000000000099
 20
0.565713729278346
 30
0.0
  0
VERTEX
  5
53BBA
  8
TITLE
 10
1.000000000000099
 20
0.565713729278346
 30
0.0
  0
SEQEND
  5
53BBB
  8
TITLE
  0
POLYLINE
  5
53508
  8
TITLE
 66
     1
 10
0.0
 20
0.0
 30
0.0
  0
VERTEX
  5
53BBC
  8
TITLE
 10
0.8125000000000099
 20
0.5344637292783461
 30
0.0
  0
VERTEX
  5
53BBD
  8
TITLE
 10
1.000000000000099
 20
0.5344637292783461
 30
0.0
  0
SEQEND
  5
53BBE
  8
TITLE
  0
POLYLINE
  5
53509
  8
TITLE
 66
     1
 10
0.0
 20
0.0
 30
0.0
  0
VERTEX
  5
53BBF
  8
TITLE
 10
0.8125000000000099
 20
0.4913848207237724
 30
0.0
  0
VERTEX
  5
53BC0
  8
TITLE
 10
1.000000000000099
 20
0.4913848207237724
 30
0.0
  0
SEQEND
  5
53BC1
  8
TITLE
  0
POLYLINE
  5
5350A
  8
TITLE
 66
     1
 10
0.0
 20
0.0
 30
0.0
  0
VERTEX
  5
53BC2
  8
TITLE
 10
0.8125000000000099
 20
0.4601348207237724
 30
0.0
  0
VERTEX
  5
53BC3
  8
TITLE
 10
1.000000000000099
 20
0.4601348207237724
 30
0.0
  0
SEQEND
  5
53BC4
  8
TITLE
  0
POLYLINE
  5
5350B
  8
TITLE
 66
     1
 10
0.0
 20
0.0
 30
0.0
  0
VERTEX
  5
53BC5
  8
TITLE
 10
0.8125000000000099
 20
0.4288848207237724
 30
0.0
  0
VERTEX
  5
53BC6
  8
TITLE
 10
1.000000000000099
 20
0.4288848207237724
 30
0.0
  0
SEQEND
  5
53BC7
  8
TITLE
  0
POLYLINE
  5
5350C
  8
TITLE
 66
     1
 10
0.0
 20
0.0
 30
0.0
  0
VERTEX
  5
53BC8
  8
TITLE
 10
0.8125000000000099
 20
0.3663848207237723
 30
0.0
  0
VERTEX
  5
53BC9
  8
TITLE
 10
1.000000000000099
 20
0.3663848207237723
 30
0.0
  0
SEQEND
  5
53BCA
  8
TITLE
  0
POLYLINE
  5
5350D
  8
TITLE
 66
     1
 10
0.0
 20
0.0
 30
0.0
  0
VERTEX
  5
53BCB
  8
TITLE
 10
0.8125000000000099
 20
0.3351348207237724
 30
0.0
  0
VERTEX
  5
53BCC
  8
TITLE
 10
1.000000000000099
 20
0.3351348207237724
 30
0.0
  0
SEQEND
  5
53BCD
  8
TITLE
  0
POLYLINE
  5
5350E
  8
TITLE
 66
     1
 10
0.0
 20
0.0
 30
0.0
  0
VERTEX
  5
53BCE
  8
TITLE
 10
0.8125000000000099
 20
0.3038848207237724
 30
0.0
  0
VERTEX
  5
53BCF
  8
TITLE
 10
1.000000000000099
 20
0.3038848207237724
 30
0.0
  0
SEQEND
  5
53BD0
  8
TITLE
  0
POLYLINE
  5
5350F
  8
TITLE
 66
     1
 10
0.0
 20
0.0
 30
0.0
  0
VERTEX
  5
53BD1
  8
TITLE
 10
0.8125000000000099
 20
0.2726348207237724
 30
0.0
  0
VERTEX
  5
53BD2
  8
TITLE
 10
1.000000000000099
 20
0.2726348207237724
 30
0.0
  0
SEQEND
  5
53BD3
  8
TITLE
  0
POLYLINE
  5
53510
  8
TITLE
 66
     1
 10
0.0
 20
0.0
 30
0.0
  0
VERTEX
  5
53BD4
  8
TITLE
 10
0.8125000000000099
 20
0.2413848207237724
 30
0.0
  0
VERTEX
  5
53BD5
  8
TITLE
 10
1.000000000000099
 20
0.2413848207237724
 30
0.0
  0
SEQEND
  5
53BD6
  8
TITLE
  0
POLYLINE
  5
53511
  8
TITLE
 66
     1
 10
0.0
 20
0.0
 30
0.0
 40
0.0025
 41
0.0025
  0
VERTEX
  5
53BD7
  8
TITLE
 10
0.8125000000000099
 20
0.2101348207237633
 30
0.0
  0
VERTEX
  5
53BD8
  8
TITLE
 10
1.000000000000099
 20
0.2101348207237633
 30
0.0
  0
SEQEND
  5
53BD9
  8
TITLE
  0
TEXT
  5
53512
  8
TITLE
 10
0.8203125000000099
 20
0.8596431872948777
 30
0.0
 40
0.0100000000000008
  1
DRAWING:
 41
0.5000000000000098
  7
GG
  0
TEXT
  5
53513
  8
TITLE
 10
0.8203125000000099
 20
0.78155399580375
 30
0.0
 40
0.0100000000000008
  1
PROJECT:
 41
0.5000000000000098
  7
GG
  0
TEXT
  5
53514
  8
TITLE
 10
0.8203125000000099
 20
0.706338729278346
 30
0.0
 40
0.0100000000000008
  1
PAGE:
 41
0.5000000000000098
  7
GG
  0
TEXT
  5
53515
  8
TITLE
 10
0.9040099403521317
 20
0.706338729278346
 30
0.0
 40
0.0100000000000008
  1
DATE:
 41
0.5000000000000098
  7
GG
  0
TEXT
  5
53516
  8
TITLE
 10
0.8203125000000099
 20
0.675088729278346
 30
0.0
 40
0.0100000000000008
  1
ARCHITECT:
 41
0.5000000000000098
  7
GG
  0
TEXT
  5
53517
  8
TITLE
 10
0.8203125000000099
 20
0.643838729278346
 30
0.0
 40
0.0100000000000008
  1
CUSTOMER:
 41
0.5000000000000098
  7
GG
  0
TEXT
  5
53518
  8
TITLE
 10
0.8203125000000099
 20
0.612588729278346
 30
0.0
 40
0.0100000000000008
  1
SALES REP:
 41
0.5000000000000098
  7
GG
  0
TEXT
  5
53519
  8
TITLE
 10
0.8203125000000099
 20
0.581338729278346
 30
0.0
 40
0.0100000000000008
  1
SALES OFFICE:
 41
0.5000000000000098
  7
GG
  0
TEXT
  5
5351A
  8
TITLE
 10
0.8203125000000099
 20
0.5500887292783461
 30
0.0
 40
0.0100000000000008
  1
PLANT:
 41
0.5000000000000098
  7
GG
  0
TEXT
  5
5351B
  8
TITLE
 10
0.8203125000000099
 20
0.5188387292783461
 30
0.0
 40
0.0100000000000008
  1
BRICK NAME:
 41
0.5000000000000098
  7
GG
  0
TEXT
  5
5351C
  8
TITLE
 10
0.8203125000000099
 20
0.4757598207237724
 30
0.0
 40
0.0100000000000008
  1
BRICK TYPE:
 41
0.5000000000000098
  7
GG
  0
TEXT
  5
5351D
  8
TITLE
 10
0.8203125000000099
 20
0.4445098207237724
 30
0.0
 40
0.0100000000000008
  1
TEXTURE:
 41
0.5000000000000098
  7
GG
  0
TEXT
  5
5351E
  8
TITLE
 10
0.8203125000000099
 20
0.3507598207237724
 30
0.0
 40
0.0100000000000008
  1
CORING:
 41
0.5000000000000098
  7
GG
  0
TEXT
  5
5351F
  8
TITLE
 10
0.8203125000000099
 20
0.3195098207237724
 30
0.0
 40
0.0100000000000008
  1
SIZE:
 41
0.6000000000000098
  7
SIMPLEX
  0
TEXT
  5
53520
  8
TITLE
 10
0.9044219305016362
 20
0.3195098207237724
 30
0.0
 40
0.0100000000000008
  1
BOND:
 41
0.6000000000000098
  7
SIMPLEX
  0
TEXT
  5
53521
  8
TITLE
 10
0.8203125000000099
 20
0.2882598207237723
 30
0.0
 40
0.0100000000000008
  1
ASTM STANDARD:
 41
0.6000000000000098
  7
SIMPLEX
  0
TEXT
  5
53522
  8
TITLE
 62
     5
 10
0.8203125000000099
 20
0.2570098207237724
 30
0.0
 40
0.0100000000000008
  1
COMPUTER FILE:
 41
0.6000000000000098
  7
SIMPLEX
  0
TEXT
  5
53523
  8
TITLE
 10
0.8203125000000099
 20
0.2257598207237723
 30
0.0
 40
0.0100000000000008
  1
DRAWN BY:
 41
0.6000000000000098
  7
SIMPLEX
  0
TEXT
  5
53524
  8
TITLE
 10
0.8213295324979938
 20
0.4152951277629669
 30
0.0
 40
0.0100000000000008
  1
NUMBER OF
 41
0.6000000000000098
  7
SIMPLEX
  0
TEXT
  5
53525
  8
TITLE
 10
0.8231422891558079
 20
0.4007955473502902
 30
0.0
 40
0.0100000000000008
  1
FINISHED FACES:
 41
0.6000000000000098
  7
SIMPLEX
  0
TEXT
  5
53526
  8
TITLE
 10
0.8446629870121208
 20
0.8873206982040128
 30
0.0
 40
0.015
  1
GLEN-GERY BRICK
 41
0.6000000000000098
  7
SIMPLEX
  0
TEXT
  5
53527
  8
TITLE
 10
0.8158826178829453
 20
0.1942810253853645
 30
0.0
 40
0.011
  1
This document is the property 
 41
0.6000000000000098
  7
SIMPLEX
  0
TEXT
  5
53528
  8
TITLE
 10
0.8158826178829453
 20
0.172949437035204
 30
0.0
 40
0.011
  1
of GLEN-GERY CORPORATION and
 41
0.6000000000000098
  7
SIMPLEX
  0
TEXT
  5
53529
  8
TITLE
 10
0.8158826178829453
 20
0.154700029083066
 30
0.0
 40
0.011
  1
may not be reproduced without
 41
0.6000000000000098
  7
SIMPLEX
  0
TEXT
  5
5352A
  8
TITLE
 10
0.8158826178829453
 20
0.1349095309319169
 30
0.0
 40
0.011
  1
written permission from the
 41
0.6000000000000098
  7
SIMPLEX
  0
TEXT
  5
5352B
  8
TITLE
 10
0.8158826178829453
 20
0.1158687523370436
 30
0.0
 40
0.011
  1
appropriate Glen-Gery 
 41
0.6000000000000098
  7
SIMPLEX
  0
TEXT
  5
5352C
  8
TITLE
 10
0.8158826178829453
 20
0.0976609954713656
 30
0.0
 40
0.011
  1
Representative. The contents 
 41
0.6000000000000098
  7
SIMPLEX
  0
TEXT
  5
5352D
  8
TITLE
 10
0.8158826178829453
 20
0.0794532386056876
 30
0.0
 40
0.011
  1
of this document are advisory 
 41
0.6000000000000098
  7
SIMPLEX
  0
TEXT
  5
5352E
  8
TITLE
 10
0.8158826178829453
 20
0.0612038306535498
 30
0.0
 40
0.011
  1
only. Responsibility for 
 41
0.6000000000000098
  7
SIMPLEX
  0
TEXT
  5
5352F
  8
TITLE
 10
0.8158826178829453
 20
0.0437457933441476
 30
0.0
 40
0.011
  1
accuracy and applicability lies 
 41
0.6000000000000098
  7
SIMPLEX
  0
TEXT
  5
53530
  8
TITLE
 10
0.8166742717462282
 20
0.0232055756367227
 30
0.0
 40
0.011
  1
entirely with the Project 
 41
0.6000000000000098
  7
SIMPLEX
  0
TEXT
  5
53531
  8
TITLE
 10
0.8158826178829453
 20
0.006538908970056
 30
0.0
 40
0.011
  1
Designer and/or Owner.
 41
0.6000000000000098
  7
SIMPLEX
  0
TEXT
  5
53532
  8
TITLE
 10
0.0053995759974211
 20
0.9188950749587256
 30
0.0
 40
0.011
  1
Signature
 41
0.6000000000000098
  7
SIMPLEX
  0
TEXT
  5
53533
  8
TITLE
 10
0.0033826178829353
 20
0.9628146163115406
 30
0.0
 40
0.0125
  1
faces, and specifications and I agree to them.
 41
0.6000000000000098
  7
SIMPLEX
  0
TEXT
  5
53534
  8
TITLE
 10
0.0033826178829353
 20
0.984146204661701
 30
0.0
 40
0.0125
  1
This drawing has been reviewed for dimensions,
 41
0.6000000000000098
  7
SIMPLEX
  0
LINE
  5
53535
  8
TITLE
 10
0.0009850077641665
 20
0.9318986903152252
 30
0.0
 11
0.3193016459224669
 21
0.9318986903152252
 31
0.0
  0
TEXT
  5
53536
  8
TITLE
 10
0.2433514394063945
 20
0.9188950749587256
 30
0.0
 40
0.011
  1
Date
 41
0.6000000000000098
  7
SIMPLEX
  0
POLYLINE
  5
53537
  8
TITLE
 66
     1
 10
0.0
 20
0.0
 30
0.0
 40
0.0025
 41
0.0025
  0
VERTEX
  5
53BDA
  8
TITLE
 10
0.0
 20
0.9118145778848212
 30
0.0
  0
VERTEX
  5
53BDB
  8
TITLE
 10
0.3193016459224669
 20
0.9118145778848212
 30
0.0
  0
VERTEX
  5
53BDC
  8
TITLE
 10
0.3193016459224669
 20
1.000000000000099
 30
0.0
  0
SEQEND
  5
53BDD
  8
TITLE
  0
TEXT
  5
53538
  8
TITLE
 10
0.8203125000000099
 20
0.3820098207237723
 30
0.0
 40
0.0100000000000008
  1
TEXTURE DIRECTION:
 41
0.5000000000000098
  7
GG
  0
POLYLINE
  5
53539
  8
TITLE
 66
     1
 10
0.0
 20
0.0
 30
0.0
  0
VERTEX
  5
53BDE
  8
TITLE
 10
0.8125000000000099
 20
0.3976348207237723
 30
0.0
  0
VERTEX
  5
53BDF
  8
TITLE
 10
1.000000000000099
 20
0.3976348207237723
 30
0.0
  0
SEQEND
  5
53BE0
  8
TITLE
  0
ATTDEF
  5
5353A
  8
TITLE2
 10
0.9055826702528735
 20
0.3755103037101936
 30
0.0
 40
0.0104166666666679
  1
PLANT OPTION
 41
0.6000000000000098
  7
GGATT
  3
AS SHOWN/PLANT OPTION?
  2
TEXTURE
 70
     0
  0
INSERT
  5
5353B
  8
TITLE
  2
LOGO
 10
0.6841017593276985
 20
0.5156107498794892
 30
0.0
 41
0.03375
 42
0.03375
 43
0.03375
  0
POLYLINE
  5
5353C
  8
TITLE
 66
     1
 10
0.0
 20
0.0
 30
0.0
 40
0.0025
 41
0.0025
  0
VERTEX
  5
53BE1
  8
TITLE
 10
0.3193016459224669
 20
0.9118145778848212
 30
0.0
  0
VERTEX
  5
53BE2
  8
TITLE
 10
0.5544749230902819
 20
0.9118145778848212
 30
0.0
  0
VERTEX
  5
53BE3
  8
TITLE
 10
0.5544749230902819
 20
1.000000000000099
 30
0.0
  0
SEQEND
  5
53BE4
  8
TITLE
  0
TEXT
  5
5353D
  8
TITLE
 10
0.3283150288974532
 20
0.9392162745049768
 30
0.0
 40
0.03
  1
Qty :
 41
0.6000000000000098
  7
SIMPLEX
  0
LINE
  5
5353E
  8
TITLE
 10
0.4055762790347202
 20
0.9277704703197585
 30
0.0
 11
0.5456428605308373
 21
0.9277704703197585
 31
0.0
  0
ENDBLK
  5
5353F
  8
0
  0
BLOCK
  8
0
  2
*X5
 70
     1
 10
0.0
 20
0.0
 30
0.0
  3
*X5
  1

  0
LINE
  5
53B38
  8
0
 62
     0
 10
-12.94248403678524
 20
1.542198543183408
 30
0.0
 11
-12.94248403678524
 21
1.542198543183408
 31
0.0
  0
LINE
  5
53B39
  8
0
 62
     0
 10
-13.008775297521479
 20
1.4759072824471691
 30
0.0
 11
-13.008775297521479
 21
1.4759072824471691
 31
0.0
  0
LINE
  5
53B3A
  8
0
 62
     0
 10
-12.97562966715336
 20
1.641635434287767
 30
0.0
 11
-12.97562966715336
 21
1.641635434287767
 31
0.0
  0
LINE
  5
53B3B
  8
0
 62
     0
 10
-13.041920927889599
 20
1.5753441735515279
 30
0.0
 11
-13.041920927889599
 21
1.5753441735515279
 31
0.0
  0
LINE
  5
53B3C
  8
0
 62
     0
 10
-13.10821218862584
 20
1.509052912815289
 30
0.0
 11
-13.10821218862584
 21
1.509052912815289
 31
0.0
  0
LINE
  5
53B3D
  8
0
 62
     0
 10
-13.17450344936208
 20
1.44276165207905
 30
0.0
 11
-13.17450344936208
 21
1.44276165207905
 31
0.0
  0
LINE
  5
53B3E
  8
0
 62
     0
 10
-12.94248403678524
 20
1.807363586128365
 30
0.0
 11
-12.94248403678524
 21
1.807363586128365
 31
0.0
  0
LINE
  5
53B3F
  8
0
 62
     0
 10
-13.008775297521479
 20
1.7410723253921261
 30
0.0
 11
-13.008775297521479
 21
1.7410723253921261
 31
0.0
  0
LINE
  5
53B40
  8
0
 62
     0
 10
-13.075066558257721
 20
1.6747810646558869
 30
0.0
 11
-13.075066558257721
 21
1.6747810646558869
 31
0.0
  0
LINE
  5
53B41
  8
0
 62
     0
 10
-13.14135781899396
 20
1.608489803919648
 30
0.0
 11
-13.14135781899396
 21
1.608489803919648
 31
0.0
  0
LINE
  5
53B42
  8
0
 62
     0
 10
-13.207649079730199
 20
1.5421985431834091
 30
0.0
 11
-13.207649079730199
 21
1.5421985431834091
 31
0.0
  0
LINE
  5
53B43
  8
0
 62
     0
 10
-13.27394034046643
 20
1.47590728244717
 30
0.0
 11
-13.27394034046643
 21
1.47590728244717
 31
0.0
  0
LINE
  5
53B44
  8
0
 62
     0
 10
-12.975629667153351
 20
1.9068004772327221
 30
0.0
 11
-12.975629667153351
 21
1.9068004772327221
 31
0.0
  0
LINE
  5
53B45
  8
0
 62
     0
 10
-13.04192092788959
 20
1.8405092164964829
 30
0.0
 11
-13.04192092788959
 21
1.8405092164964829
 31
0.0
  0
LINE
  5
53B46
  8
0
 62
     0
 10
-13.10821218862583
 20
1.774217955760244
 30
0.0
 11
-13.10821218862583
 21
1.774217955760244
 31
0.0
  0
LINE
  5
53B47
  8
0
 62
     0
 10
-13.174503449362071
 20
1.7079266950240051
 30
0.0
 11
-13.174503449362071
 21
1.7079266950240051
 31
0.0
  0
LINE
  5
53B48
  8
0
 62
     0
 10
-13.24079471009831
 20
1.641635434287767
 30
0.0
 11
-13.24079471009831
 21
1.641635434287767
 31
0.0
  0
LINE
  5
53B49
  8
0
 62
     0
 10
-13.307085970834549
 20
1.5753441735515279
 30
0.0
 11
-13.307085970834549
 21
1.5753441735515279
 31
0.0
  0
LINE
  5
53B4A
  8
0
 62
     0
 10
-13.373377231570791
 20
1.509052912815289
 30
0.0
 11
-13.373377231570791
 21
1.509052912815289
 31
0.0
  0
LINE
  5
53B4B
  8
0
 62
     0
 10
-13.43966849230703
 20
1.44276165207905
 30
0.0
 11
-13.43966849230703
 21
1.44276165207905
 31
0.0
  0
LINE
  5
53B4C
  8
0
 62
     0
 10
-13.07506655825771
 20
1.9399461076008431
 30
0.0
 11
-13.07506655825771
 21
1.9399461076008431
 31
0.0
  0
LINE
  5
53B4D
  8
0
 62
     0
 10
-13.141357818993949
 20
1.8736548468646039
 30
0.0
 11
-13.141357818993949
 21
1.8736548468646039
 31
0.0
  0
LINE
  5
53B4E
  8
0
 62
     0
 10
-13.20764907973019
 20
1.807363586128365
 30
0.0
 11
-13.20764907973019
 21
1.807363586128365
 31
0.0
  0
LINE
  5
53B4F
  8
0
 62
     0
 10
-13.27394034046643
 20
1.7410723253921261
 30
0.0
 11
-13.27394034046643
 21
1.7410723253921261
 31
0.0
  0
LINE
  5
53B50
  8
0
 62
     0
 10
-13.340231601202669
 20
1.6747810646558881
 30
0.0
 11
-13.340231601202669
 21
1.6747810646558881
 31
0.0
  0
LINE
  5
53B51
  8
0
 62
     0
 10
-13.40652286193891
 20
1.6084898039196489
 30
0.0
 11
-13.40652286193891
 21
1.6084898039196489
 31
0.0
  0
LINE
  5
53B52
  8
0
 62
     0
 10
-13.47281412267515
 20
1.54219854318341
 30
0.0
 11
-13.47281412267515
 21
1.54219854318341
 31
0.0
  0
LINE
  5
53B53
  8
0
 62
     0
 10
-13.539105383411391
 20
1.4759072824471711
 30
0.0
 11
-13.539105383411391
 21
1.4759072824471711
 31
0.0
  0
LINE
  5
53B54
  8
0
 62
     0
 10
-13.24079471009831
 20
1.9068004772327241
 30
0.0
 11
-13.24079471009831
 21
1.9068004772327241
 31
0.0
  0
LINE
  5
53B55
  8
0
 62
     0
 10
-13.307085970834549
 20
1.8405092164964849
 30
0.0
 11
-13.307085970834549
 21
1.8405092164964849
 31
0.0
  0
LINE
  5
53B56
  8
0
 62
     0
 10
-13.373377231570791
 20
1.774217955760246
 30
0.0
 11
-13.373377231570791
 21
1.774217955760246
 31
0.0
  0
LINE
  5
53B57
  8
0
 62
     0
 10
-13.43966849230703
 20
1.7079266950240071
 30
0.0
 11
-13.43966849230703
 21
1.7079266950240071
 31
0.0
  0
LINE
  5
53B58
  8
0
 62
     0
 10
-13.505959753043269
 20
1.6416354342877679
 30
0.0
 11
-13.505959753043269
 21
1.6416354342877679
 31
0.0
  0
LINE
  5
53B59
  8
0
 62
     0
 10
-13.57225101377951
 20
1.575344173551529
 30
0.0
 11
-13.57225101377951
 21
1.575344173551529
 31
0.0
  0
LINE
  5
53B5A
  8
0
 62
     0
 10
-13.63854227451575
 20
1.5090529128152901
 30
0.0
 11
-13.63854227451575
 21
1.5090529128152901
 31
0.0
  0
LINE
  5
53B5B
  8
0
 62
     0
 10
-13.704833535251989
 20
1.442761652079052
 30
0.0
 11
-13.704833535251989
 21
1.442761652079052
 31
0.0
  0
LINE
  5
53B5C
  8
0
 62
     0
 10
-13.340231601202669
 20
1.939946107600842
 30
0.0
 11
-13.340231601202669
 21
1.939946107600842
 31
0.0
  0
LINE
  5
53B5D
  8
0
 62
     0
 10
-13.40652286193891
 20
1.873654846864603
 30
0.0
 11
-13.40652286193891
 21
1.873654846864603
 31
0.0
  0
LINE
  5
53B5E
  8
0
 62
     0
 10
-13.47281412267515
 20
1.8073635861283639
 30
0.0
 11
-13.47281412267515
 21
1.8073635861283639
 31
0.0
  0
LINE
  5
53B5F
  8
0
 62
     0
 10
-13.539105383411391
 20
1.741072325392125
 30
0.0
 11
-13.539105383411391
 21
1.741072325392125
 31
0.0
  0
LINE
  5
53B60
  8
0
 62
     0
 10
-13.60539664414763
 20
1.6747810646558861
 30
0.0
 11
-13.60539664414763
 21
1.6747810646558861
 31
0.0
  0
LINE
  5
53B61
  8
0
 62
     0
 10
-13.67168790488387
 20
1.6084898039196469
 30
0.0
 11
-13.67168790488387
 21
1.6084898039196469
 31
0.0
  0
LINE
  5
53B62
  8
0
 62
     0
 10
-13.737979165620111
 20
1.5421985431834091
 30
0.0
 11
-13.737979165620111
 21
1.5421985431834091
 31
0.0
  0
LINE
  5
53B63
  8
0
 62
     0
 10
-13.804270426356339
 20
1.47590728244717
 30
0.0
 11
-13.804270426356339
 21
1.47590728244717
 31
0.0
  0
LINE
  5
53B64
  8
0
 62
     0
 10
-13.505959753043269
 20
1.9068004772327229
 30
0.0
 11
-13.505959753043269
 21
1.9068004772327229
 31
0.0
  0
LINE
  5
53B65
  8
0
 62
     0
 10
-13.57225101377951
 20
1.840509216496484
 30
0.0
 11
-13.57225101377951
 21
1.840509216496484
 31
0.0
  0
LINE
  5
53B66
  8
0
 62
     0
 10
-13.63854227451575
 20
1.7742179557602451
 30
0.0
 11
-13.63854227451575
 21
1.7742179557602451
 31
0.0
  0
LINE
  5
53B67
  8
0
 62
     0
 10
-13.70483353525198
 20
1.707926695024006
 30
0.0
 11
-13.70483353525198
 21
1.707926695024006
 31
0.0
  0
LINE
  5
53B68
  8
0
 62
     0
 10
-13.77112479598822
 20
1.641635434287767
 30
0.0
 11
-13.77112479598822
 21
1.641635434287767
 31
0.0
  0
LINE
  5
53B69
  8
0
 62
     0
 10
-13.837416056724461
 20
1.575344173551529
 30
0.0
 11
-13.837416056724461
 21
1.575344173551529
 31
0.0
  0
LINE
  5
53B6A
  8
0
 62
     0
 10
-13.9037073174607
 20
1.5090529128152901
 30
0.0
 11
-13.9037073174607
 21
1.5090529128152901
 31
0.0
  0
LINE
  5
53B6B
  8
0
 62
     0
 10
-13.96999857819694
 20
1.4427616520790509
 30
0.0
 11
-13.96999857819694
 21
1.4427616520790509
 31
0.0
  0
LINE
  5
53B6C
  8
0
 62
     0
 10
-13.60539664414762
 20
1.9399461076008431
 30
0.0
 11
-13.60539664414762
 21
1.9399461076008431
 31
0.0
  0
LINE
  5
53B6D
  8
0
 62
     0
 10
-13.671687904883861
 20
1.8736548468646039
 30
0.0
 11
-13.671687904883861
 21
1.8736548468646039
 31
0.0
  0
LINE
  5
53B6E
  8
0
 62
     0
 10
-13.7379791656201
 20
1.807363586128365
 30
0.0
 11
-13.7379791656201
 21
1.807363586128365
 31
0.0
  0
LINE
  5
53B6F
  8
0
 62
     0
 10
-13.804270426356339
 20
1.7410723253921261
 30
0.0
 11
-13.804270426356339
 21
1.7410723253921261
 31
0.0
  0
LINE
  5
53B70
  8
0
 62
     0
 10
-13.870561687092581
 20
1.6747810646558869
 30
0.0
 11
-13.870561687092581
 21
1.6747810646558869
 31
0.0
  0
LINE
  5
53B71
  8
0
 62
     0
 10
-13.93685294782882
 20
1.608489803919648
 30
0.0
 11
-13.93685294782882
 21
1.608489803919648
 31
0.0
  0
LINE
  5
53B72
  8
0
 62
     0
 10
-14.003144208565059
 20
1.5421985431834091
 30
0.0
 11
-14.003144208565059
 21
1.5421985431834091
 31
0.0
  0
LINE
  5
53B73
  8
0
 62
     0
 10
-14.0694354693013
 20
1.47590728244717
 30
0.0
 11
-14.0694354693013
 21
1.47590728244717
 31
0.0
  0
LINE
  5
53B74
  8
0
 62
     0
 10
-13.77112479598822
 20
1.9068004772327241
 30
0.0
 11
-13.77112479598822
 21
1.9068004772327241
 31
0.0
  0
LINE
  5
53B75
  8
0
 62
     0
 10
-13.837416056724461
 20
1.8405092164964849
 30
0.0
 11
-13.837416056724461
 21
1.8405092164964849
 31
0.0
  0
LINE
  5
53B76
  8
0
 62
     0
 10
-13.9037073174607
 20
1.774217955760246
 30
0.0
 11
-13.9037073174607
 21
1.774217955760246
 31
0.0
  0
LINE
  5
53B77
  8
0
 62
     0
 10
-13.96999857819694
 20
1.7079266950240071
 30
0.0
 11
-13.96999857819694
 21
1.7079266950240071
 31
0.0
  0
LINE
  5
53B78
  8
0
 62
     0
 10
-14.036289838933181
 20
1.6416354342877679
 30
0.0
 11
-14.036289838933181
 21
1.6416354342877679
 31
0.0
  0
LINE
  5
53B79
  8
0
 62
     0
 10
-14.10258109966942
 20
1.575344173551529
 30
0.0
 11
-14.10258109966942
 21
1.575344173551529
 31
0.0
  0
LINE
  5
53B7A
  8
0
 62
     0
 10
-14.168872360405659
 20
1.5090529128152901
 30
0.0
 11
-14.168872360405659
 21
1.5090529128152901
 31
0.0
  0
LINE
  5
53B7B
  8
0
 62
     0
 10
-14.235163621141901
 20
1.4427616520790509
 30
0.0
 11
-14.235163621141901
 21
1.4427616520790509
 31
0.0
  0
LINE
  5
53B7C
  8
0
 62
     0
 10
-13.870561687092581
 20
1.9399461076008411
 30
0.0
 11
-13.870561687092581
 21
1.9399461076008411
 31
0.0
  0
LINE
  5
53B7D
  8
0
 62
     0
 10
-13.93685294782882
 20
1.8736548468646019
 30
0.0
 11
-13.93685294782882
 21
1.8736548468646019
 31
0.0
  0
LINE
  5
53B7E
  8
0
 62
     0
 10
-14.003144208565059
 20
1.807363586128363
 30
0.0
 11
-14.003144208565059
 21
1.807363586128363
 31
0.0
  0
LINE
  5
53B7F
  8
0
 62
     0
 10
-14.0694354693013
 20
1.7410723253921241
 30
0.0
 11
-14.0694354693013
 21
1.7410723253921241
 31
0.0
  0
LINE
  5
53B80
  8
0
 62
     0
 10
-14.13572673003754
 20
1.6747810646558849
 30
0.0
 11
-14.13572673003754
 21
1.6747810646558849
 31
0.0
  0
LINE
  5
53B81
  8
0
 62
     0
 10
-14.202017990773779
 20
1.608489803919646
 30
0.0
 11
-14.202017990773779
 21
1.608489803919646
 31
0.0
  0
LINE
  5
53B82
  8
0
 62
     0
 10
-14.036289838933181
 20
1.9068004772327229
 30
0.0
 11
-14.036289838933181
 21
1.9068004772327229
 31
0.0
  0
LINE
  5
53B83
  8
0
 62
     0
 10
-14.10258109966942
 20
1.840509216496484
 30
0.0
 11
-14.10258109966942
 21
1.840509216496484
 31
0.0
  0
LINE
  5
53B84
  8
0
 62
     0
 10
-14.168872360405659
 20
1.7742179557602451
 30
0.0
 11
-14.168872360405659
 21
1.7742179557602451
 31
0.0
  0
LINE
  5
53B85
  8
0
 62
     0
 10
-14.235163621141901
 20
1.707926695024006
 30
0.0
 11
-14.235163621141901
 21
1.707926695024006
 31
0.0
  0
LINE
  5
53B86
  8
0
 62
     0
 10
-14.13572673003754
 20
1.9399461076008431
 30
0.0
 11
-14.13572673003754
 21
1.9399461076008431
 31
0.0
  0
LINE
  5
53B87
  8
0
 62
     0
 10
-14.202017990773779
 20
1.8736548468646039
 30
0.0
 11
-14.202017990773779
 21
1.8736548468646039
 31
0.0
  0
ENDBLK
  5
53B89
  8
0
  0
BLOCK
  8
0
  2
*U6
 70
     1
 10
0.0
 20
0.0
 30
0.0
  3
*U6
  1

  0
SOLID
  5
53B8B
  8
DIM
 10
-28.973846967675531
 20
5.2470704067150526
 30
0.0
 11
-29.194187411598829
 21
5.3723149670072701
 31
0.0
 12
-28.94513740454958
 22
5.3253021485438143
 32
0.0
 13
-28.94513740454958
 23
5.3253021485438143
 33
0.0
  0
POLYLINE
  5
53B8C
  8
DIM
 66
     1
 10
0.0
 20
0.0
 30
0.0
  0
VERTEX
  5
53B8D
  8
DIM
 10
-28.959492186112548
 20
5.2861862776294331
 30
0.0
  0
VERTEX
  5
53B8E
  8
DIM
 10
-26.802338546068061
 20
4.4945518699898912
 30
0.0
  0
VERTEX
  5
53B8F
  8
DIM
 10
-26.363194298890178
 20
4.4945518699898912
 30
0.0
  0
SEQEND
  5
53B90
  8
DIM
  0
ENDBLK
  5
53B92
  8
0
  0
BLOCK
  8
0
  2
*U7
 70
     1
 10
0.0
 20
0.0
 30
0.0
  3
*U7
  1

  0
SOLID
  5
53B94
  8
DIM
 10
-17.486810630553009
 20
7.286066105326741
 30
0.0
 11
-17.687254441623391
 21
7.1309584339668346
 31
0.0
 12
-17.547950621862729
 22
7.3426907104652477
 32
0.0
 13
-17.547950621862729
 23
7.3426907104652477
 33
0.0
  0
POLYLINE
  5
53B95
  8
DIM
 66
     1
 10
0.0
 20
0.0
 30
0.0
  0
VERTEX
  5
53B96
  8
DIM
 10
-17.517380626207871
 20
7.3143784078959948
 30
0.0
  0
VERTEX
  5
53B97
  8
DIM
 10
-15.28708808224019
 20
9.7225199997494585
 30
0.0
  0
VERTEX
  5
53B98
  8
DIM
 10
-16.28989107180351
 20
9.7225199997494585
 30
0.0
  0
SEQEND
  5
53B99
  8
DIM
  0
ENDBLK
  5
53B9B
  8
0
  0
BLOCK
  8
0
  2
*U8
 70
     1
 10
0.0
 20
0.0
 30
0.0
  3
*U8
  1

  0
TEXT
  5
53BE6
  8
DIM
 10
-31.016810907328651
 20
9.5061069233107531
 30
0.0
 40
0.375
  1
1"
  7
SMOOTH
  0
ENDBLK
  5
53BE8
  8
0
  0
BLOCK
  8
0
  2
*U9
 70
     1
 10
0.0
 20
0.0
 30
0.0
  3
*U9
  1

  0
TEXT
  5
53BEA
  8
DIM
 10
-32.382653792160013
 20
5.6609716762909219
 30
0.0
 40
0.375
  1
3 5/8"
  7
SMOOTH
  0
ENDBLK
  5
53BEC
  8
0
  0
BLOCK
  8
0
  2
*U10
 70
     1
 10
0.0
 20
0.0
 30
0.0
  3
*U10
  1

  0
TEXT
  5
53BEE
  8
DIM
 10
-31.466198380340419
 20
8.300102584769931
 30
0.0
 40
0.375
  1
3/4"
  7
SMOOTH
  0
ENDBLK
  5
53BF0
  8
0
  0
BLOCK
  8
0
  2
*U11
 70
     1
 10
0.0
 20
0.0
 30
0.0
  3
*U11
  1

  0
TEXT
  5
53BF2
  8
DIM
 10
-31.016810907328651
 20
17.945487867413568
 30
0.0
 40
0.375
  1
1"
  7
SMOOTH
  0
ENDBLK
  5
53BF4
  8
0
  0
BLOCK
  8
0
  2
*U12
 70
     1
 10
0.0
 20
0.0
 30
0.0
  3
*U12
  1

  0
TEXT
  5
53BF6
  8
DIM
 10
-31.466198380340419
 20
16.576048292506311
 30
0.0
 40
0.375
  1
3/4"
  7
SMOOTH
  0
ENDBLK
  5
53BF8
  8
0
  0
BLOCK
  8
0
  2
*U13
 70
     1
 10
0.0
 20
0.0
 30
0.0
  3
*U13
  1

  0
TEXT
  5
53BFA
  8
DIM
 10
-29.35642416431623
 20
12.413025838695191
 30
0.0
 40
0.375
  1
2 1/2"
  7
SMOOTH
  0
ENDBLK
  5
53BFC
  8
0
  0
BLOCK
  8
0
  2
*U14
 70
     1
 10
0.0
 20
0.0
 30
0.0
  3
*U14
  1

  0
TEXT
  5
53BFE
  8
DIM
 10
-29.35642416431623
 20
2.646158018197676
 30
0.0
 40
0.375
  1
2 1/2"
  7
SMOOTH
  0
ENDBLK
  5
53C00
  8
0
  0
BLOCK
  8
0
  2
*X15
 70
     1
 10
0.0
 20
0.0
 30
0.0
  3
*X15
  1

  0
LINE
  5
53C02
  8
0
 62
     0
 10
-17.91695489278662
 20
3.3513870329442601
 30
0.0
 11
-17.91695489278662
 21
3.3513870329442601
 31
0.0
  0
LINE
  5
53C03
  8
0
 62
     0
 10
-17.950100523154742
 20
3.4508239240486178
 30
0.0
 11
-17.950100523154742
 21
3.4508239240486178
 31
0.0
  0
LINE
  5
53C04
  8
0
 62
     0
 10
-18.016391783890981
 20
3.3845326633123789
 30
0.0
 11
-18.016391783890981
 21
3.3845326633123789
 31
0.0
  0
LINE
  5
53C05
  8
0
 62
     0
 10
-17.91695489278662
 20
3.6165520758892189
 30
0.0
 11
-17.91695489278662
 21
3.6165520758892189
 31
0.0
  0
LINE
  5
53C06
  8
0
 62
     0
 10
-17.98324615352286
 20
3.55026081515298
 30
0.0
 11
-17.98324615352286
 21
3.55026081515298
 31
0.0
  0
LINE
  5
53C07
  8
0
 62
     0
 10
-18.049537414259099
 20
3.4839695544167411
 30
0.0
 11
-18.049537414259099
 21
3.4839695544167411
 31
0.0
  0
LINE
  5
53C08
  8
0
 62
     0
 10
-17.950100523154742
 20
3.7159889669935739
 30
0.0
 11
-17.950100523154742
 21
3.7159889669935739
 31
0.0
  0
LINE
  5
53C09
  8
0
 62
     0
 10
-18.016391783890981
 20
3.649697706257335
 30
0.0
 11
-18.016391783890981
 21
3.649697706257335
 31
0.0
  0
LINE
  5
53C0A
  8
0
 62
     0
 10
-18.08268304462721
 20
3.5834064455210961
 30
0.0
 11
-18.08268304462721
 21
3.5834064455210961
 31
0.0
  0
LINE
  5
53C0B
  8
0
 62
     0
 10
-18.148974305363449
 20
3.5171151847848581
 30
0.0
 11
-18.148974305363449
 21
3.5171151847848581
 31
0.0
  0
LINE
  5
53C0C
  8
0
 62
     0
 10
-17.91695489278661
 20
3.8817171188341728
 30
0.0
 11
-17.91695489278661
 21
3.8817171188341728
 31
0.0
  0
LINE
  5
53C0D
  8
0
 62
     0
 10
-17.983246153522849
 20
3.8154258580979339
 30
0.0
 11
-17.983246153522849
 21
3.8154258580979339
 31
0.0
  0
LINE
  5
53C0E
  8
0
 62
     0
 10
-18.049537414259088
 20
3.749134597361695
 30
0.0
 11
-18.049537414259088
 21
3.749134597361695
 31
0.0
  0
LINE
  5
53C0F
  8
0
 62
     0
 10
-18.115828674995331
 20
3.682843336625456
 30
0.0
 11
-18.115828674995331
 21
3.682843336625456
 31
0.0
  0
LINE
  5
53C10
  8
0
 62
     0
 10
-18.182119935731571
 20
3.6165520758892171
 30
0.0
 11
-18.182119935731571
 21
3.6165520758892171
 31
0.0
  0
LINE
  5
53C11
  8
0
 62
     0
 10
-18.24841119646781
 20
3.5502608151529782
 30
0.0
 11
-18.24841119646781
 21
3.5502608151529782
 31
0.0
  0
LINE
  5
53C12
  8
0
 62
     0
 10
-17.950100523154731
 20
3.9811540099385332
 30
0.0
 11
-17.950100523154731
 21
3.9811540099385332
 31
0.0
  0
LINE
  5
53C13
  8
0
 62
     0
 10
-18.01639178389097
 20
3.9148627492022938
 30
0.0
 11
-18.01639178389097
 21
3.9148627492022938
 31
0.0
  0
LINE
  5
53C14
  8
0
 62
     0
 10
-18.08268304462721
 20
3.8485714884660549
 30
0.0
 11
-18.08268304462721
 21
3.8485714884660549
 31
0.0
  0
LINE
  5
53C15
  8
0
 62
     0
 10
-18.148974305363449
 20
3.782280227729816
 30
0.0
 11
-18.148974305363449
 21
3.782280227729816
 31
0.0
  0
LINE
  5
53C16
  8
0
 62
     0
 10
-18.215265566099688
 20
3.7159889669935771
 30
0.0
 11
-18.215265566099688
 21
3.7159889669935771
 31
0.0
  0
LINE
  5
53C17
  8
0
 62
     0
 10
-18.281556826835931
 20
3.6496977062573381
 30
0.0
 11
-18.281556826835931
 21
3.6496977062573381
 31
0.0
  0
LINE
  5
53C18
  8
0
 62
     0
 10
-18.347848087572171
 20
3.5834064455210992
 30
0.0
 11
-18.347848087572171
 21
3.5834064455210992
 31
0.0
  0
LINE
  5
53C19
  8
0
 62
     0
 10
-17.784372371314142
 20
4.2794646832516046
 30
0.0
 11
-17.784372371314142
 21
4.2794646832516046
 31
0.0
  0
LINE
  5
53C1A
  8
0
 62
     0
 10
-17.850663632050381
 20
4.2131734225153661
 30
0.0
 11
-17.850663632050381
 21
4.2131734225153661
 31
0.0
  0
LINE
  5
53C1B
  8
0
 62
     0
 10
-17.91695489278662
 20
4.1468821617791276
 30
0.0
 11
-17.91695489278662
 21
4.1468821617791276
 31
0.0
  0
LINE
  5
53C1C
  8
0
 62
     0
 10
-17.983246153522849
 20
4.0805909010428891
 30
0.0
 11
-17.983246153522849
 21
4.0805909010428891
 31
0.0
  0
LINE
  5
53C1D
  8
0
 62
     0
 10
-18.049537414259088
 20
4.0142996403066498
 30
0.0
 11
-18.049537414259088
 21
4.0142996403066498
 31
0.0
  0
LINE
  5
53C1E
  8
0
 62
     0
 10
-18.115828674995331
 20
3.9480083795704122
 30
0.0
 11
-18.115828674995331
 21
3.9480083795704122
 31
0.0
  0
LINE
  5
53C1F
  8
0
 62
     0
 10
-18.182119935731571
 20
3.8817171188341728
 30
0.0
 11
-18.182119935731571
 21
3.8817171188341728
 31
0.0
  0
LINE
  5
53C20
  8
0
 62
     0
 10
-18.24841119646781
 20
3.8154258580979339
 30
0.0
 11
-18.24841119646781
 21
3.8154258580979339
 31
0.0
  0
LINE
  5
53C21
  8
0
 62
     0
 10
-18.314702457204049
 20
3.749134597361695
 30
0.0
 11
-18.314702457204049
 21
3.749134597361695
 31
0.0
  0
LINE
  5
53C22
  8
0
 62
     0
 10
-18.380993717940289
 20
3.682843336625456
 30
0.0
 11
-18.380993717940289
 21
3.682843336625456
 31
0.0
  0
LINE
  5
53C23
  8
0
 62
     0
 10
-17.618644219473541
 20
4.5777753565646808
 30
0.0
 11
-17.618644219473541
 21
4.5777753565646808
 31
0.0
  0
LINE
  5
53C24
  8
0
 62
     0
 10
-17.684935480209781
 20
4.5114840958284432
 30
0.0
 11
-17.684935480209781
 21
4.5114840958284432
 31
0.0
  0
LINE
  5
53C25
  8
0
 62
     0
 10
-17.75122674094602
 20
4.4451928350922039
 30
0.0
 11
-17.75122674094602
 21
4.4451928350922039
 31
0.0
  0
LINE
  5
53C26
  8
0
 62
     0
 10
-17.817518001682249
 20
4.3789015743559663
 30
0.0
 11
-17.817518001682249
 21
4.3789015743559663
 31
0.0
  0
LINE
  5
53C27
  8
0
 62
     0
 10
-17.883809262418492
 20
4.3126103136197269
 30
0.0
 11
-17.883809262418492
 21
4.3126103136197269
 31
0.0
  0
LINE
  5
53C28
  8
0
 62
     0
 10
-17.950100523154731
 20
4.2463190528834893
 30
0.0
 11
-17.950100523154731
 21
4.2463190528834893
 31
0.0
  0
LINE
  5
53C29
  8
0
 62
     0
 10
-18.01639178389097
 20
4.18002779214725
 30
0.0
 11
-18.01639178389097
 21
4.18002779214725
 31
0.0
  0
LINE
  5
53C2A
  8
0
 62
     0
 10
-18.08268304462721
 20
4.1137365314110079
 30
0.0
 11
-18.08268304462721
 21
4.1137365314110079
 31
0.0
  0
LINE
  5
53C2B
  8
0
 62
     0
 10
-18.148974305363449
 20
4.0474452706747703
 30
0.0
 11
-18.148974305363449
 21
4.0474452706747703
 31
0.0
  0
LINE
  5
53C2C
  8
0
 62
     0
 10
-18.215265566099688
 20
3.981154009938531
 30
0.0
 11
-18.215265566099688
 21
3.981154009938531
 31
0.0
  0
LINE
  5
53C2D
  8
0
 62
     0
 10
-18.281556826835931
 20
3.914862749202292
 30
0.0
 11
-18.281556826835931
 21
3.914862749202292
 31
0.0
  0
LINE
  5
53C2E
  8
0
 62
     0
 10
-18.347848087572171
 20
3.848571488466054
 30
0.0
 11
-18.347848087572171
 21
3.848571488466054
 31
0.0
  0
LINE
  5
53C2F
  8
0
 62
     0
 10
-18.41413934830841
 20
3.7822802277298151
 30
0.0
 11
-18.41413934830841
 21
3.7822802277298151
 31
0.0
  0
LINE
  5
53C30
  8
0
 62
     0
 10
-18.48043060904465
 20
3.7159889669935762
 30
0.0
 11
-18.48043060904465
 21
3.7159889669935762
 31
0.0
  0
LINE
  5
53C31
  8
0
 62
     0
 10
-17.452916067632941
 20
4.8760860298777509
 30
0.0
 11
-17.452916067632941
 21
4.8760860298777509
 31
0.0
  0
LINE
  5
53C32
  8
0
 62
     0
 10
-17.51920732836918
 20
4.8097947691415133
 30
0.0
 11
-17.51920732836918
 21
4.8097947691415133
 31
0.0
  0
LINE
  5
53C33
  8
0
 62
     0
 10
-17.58549858910542
 20
4.7435035084052739
 30
0.0
 11
-17.58549858910542
 21
4.7435035084052739
 31
0.0
  0
LINE
  5
53C34
  8
0
 62
     0
 10
-17.651789849841659
 20
4.6772122476690363
 30
0.0
 11
-17.651789849841659
 21
4.6772122476690363
 31
0.0
  0
LINE
  5
53C35
  8
0
 62
     0
 10
-17.718081110577899
 20
4.6109209869327969
 30
0.0
 11
-17.718081110577899
 21
4.6109209869327969
 31
0.0
  0
LINE
  5
53C36
  8
0
 62
     0
 10
-17.784372371314142
 20
4.5446297261965594
 30
0.0
 11
-17.784372371314142
 21
4.5446297261965594
 31
0.0
  0
LINE
  5
53C37
  8
0
 62
     0
 10
-17.850663632050381
 20
4.47833846546032
 30
0.0
 11
-17.850663632050381
 21
4.47833846546032
 31
0.0
  0
LINE
  5
53C38
  8
0
 62
     0
 10
-17.91695489278662
 20
4.4120472047240824
 30
0.0
 11
-17.91695489278662
 21
4.4120472047240824
 31
0.0
  0
LINE
  5
53C39
  8
0
 62
     0
 10
-17.983246153522849
 20
4.345755943987843
 30
0.0
 11
-17.983246153522849
 21
4.345755943987843
 31
0.0
  0
LINE
  5
53C3A
  8
0
 62
     0
 10
-18.049537414259088
 20
4.2794646832516046
 30
0.0
 11
-18.049537414259088
 21
4.2794646832516046
 31
0.0
  0
LINE
  5
53C3B
  8
0
 62
     0
 10
-18.115828674995331
 20
4.2131734225153661
 30
0.0
 11
-18.115828674995331
 21
4.2131734225153661
 31
0.0
  0
LINE
  5
53C3C
  8
0
 62
     0
 10
-18.182119935731571
 20
4.1468821617791249
 30
0.0
 11
-18.182119935731571
 21
4.1468821617791249
 31
0.0
  0
LINE
  5
53C3D
  8
0
 62
     0
 10
-18.24841119646781
 20
4.0805909010428874
 30
0.0
 11
-18.24841119646781
 21
4.0805909010428874
 31
0.0
  0
LINE
  5
53C3E
  8
0
 62
     0
 10
-18.314702457204049
 20
4.014299640306648
 30
0.0
 11
-18.314702457204049
 21
4.014299640306648
 31
0.0
  0
LINE
  5
53C3F
  8
0
 62
     0
 10
-18.380993717940289
 20
3.94800837957041
 30
0.0
 11
-18.380993717940289
 21
3.94800837957041
 31
0.0
  0
LINE
  5
53C40
  8
0
 62
     0
 10
-18.447284978676521
 20
3.881717118834171
 30
0.0
 11
-18.447284978676521
 21
3.881717118834171
 31
0.0
  0
LINE
  5
53C41
  8
0
 62
     0
 10
-18.513576239412771
 20
3.8154258580979321
 30
0.0
 11
-18.513576239412771
 21
3.8154258580979321
 31
0.0
  0
LINE
  5
53C42
  8
0
 62
     0
 10
-18.57986750014901
 20
3.7491345973616932
 30
0.0
 11
-18.57986750014901
 21
3.7491345973616932
 31
0.0
  0
LINE
  5
53C43
  8
0
 62
     0
 10
-17.287187915792341
 20
5.1743967031908236
 30
0.0
 11
-17.287187915792341
 21
5.1743967031908236
 31
0.0
  0
LINE
  5
53C44
  8
0
 62
     0
 10
-17.35347917652858
 20
5.1081054424545851
 30
0.0
 11
-17.35347917652858
 21
5.1081054424545851
 31
0.0
  0
LINE
  5
53C45
  8
0
 62
     0
 10
-17.41977043726482
 20
5.0418141817183466
 30
0.0
 11
-17.41977043726482
 21
5.0418141817183466
 31
0.0
  0
LINE
  5
53C46
  8
0
 62
     0
 10
-17.486061698001059
 20
4.975522920982109
 30
0.0
 11
-17.486061698001059
 21
4.975522920982109
 31
0.0
  0
LINE
  5
53C47
  8
0
 62
     0
 10
-17.552352958737298
 20
4.9092316602458697
 30
0.0
 11
-17.552352958737298
 21
4.9092316602458697
 31
0.0
  0
LINE
  5
53C48
  8
0
 62
     0
 10
-17.618644219473541
 20
4.8429403995096321
 30
0.0
 11
-17.618644219473541
 21
4.8429403995096321
 31
0.0
  0
LINE
  5
53C49
  8
0
 62
     0
 10
-17.684935480209781
 20
4.7766491387733927
 30
0.0
 11
-17.684935480209781
 21
4.7766491387733927
 31
0.0
  0
LINE
  5
53C4A
  8
0
 62
     0
 10
-17.75122674094602
 20
4.7103578780371551
 30
0.0
 11
-17.75122674094602
 21
4.7103578780371551
 31
0.0
  0
LINE
  5
53C4B
  8
0
 62
     0
 10
-17.817518001682249
 20
4.6440666173009157
 30
0.0
 11
-17.817518001682249
 21
4.6440666173009157
 31
0.0
  0
LINE
  5
53C4C
  8
0
 62
     0
 10
-17.883809262418492
 20
4.5777753565646782
 30
0.0
 11
-17.883809262418492
 21
4.5777753565646782
 31
0.0
  0
LINE
  5
53C4D
  8
0
 62
     0
 10
-17.950100523154731
 20
4.5114840958284388
 30
0.0
 11
-17.950100523154731
 21
4.5114840958284388
 31
0.0
  0
LINE
  5
53C4E
  8
0
 62
     0
 10
-18.01639178389097
 20
4.4451928350922012
 30
0.0
 11
-18.01639178389097
 21
4.4451928350922012
 31
0.0
  0
LINE
  5
53C4F
  8
0
 62
     0
 10
-18.08268304462721
 20
4.3789015743559618
 30
0.0
 11
-18.08268304462721
 21
4.3789015743559618
 31
0.0
  0
LINE
  5
53C50
  8
0
 62
     0
 10
-18.148974305363449
 20
4.3126103136197242
 30
0.0
 11
-18.148974305363449
 21
4.3126103136197242
 31
0.0
  0
LINE
  5
53C51
  8
0
 62
     0
 10
-18.215265566099688
 20
4.2463190528834849
 30
0.0
 11
-18.215265566099688
 21
4.2463190528834849
 31
0.0
  0
LINE
  5
53C52
  8
0
 62
     0
 10
-18.281556826835931
 20
4.1800277921472473
 30
0.0
 11
-18.281556826835931
 21
4.1800277921472473
 31
0.0
  0
LINE
  5
53C53
  8
0
 62
     0
 10
-18.34784808757216
 20
4.1137365314110079
 30
0.0
 11
-18.34784808757216
 21
4.1137365314110079
 31
0.0
  0
LINE
  5
53C54
  8
0
 62
     0
 10
-18.41413934830841
 20
4.0474452706747703
 30
0.0
 11
-18.41413934830841
 21
4.0474452706747703
 31
0.0
  0
LINE
  5
53C55
  8
0
 62
     0
 10
-18.480430609044639
 20
3.981154009938531
 30
0.0
 11
-18.480430609044639
 21
3.981154009938531
 31
0.0
  0
LINE
  5
53C56
  8
0
 62
     0
 10
-18.546721869780882
 20
3.914862749202292
 30
0.0
 11
-18.546721869780882
 21
3.914862749202292
 31
0.0
  0
LINE
  5
53C57
  8
0
 62
     0
 10
-18.613013130517121
 20
3.8485714884660531
 30
0.0
 11
-18.613013130517121
 21
3.8485714884660531
 31
0.0
  0
LINE
  5
53C58
  8
0
 62
     0
 10
-18.679304391253361
 20
3.7822802277298142
 30
0.0
 11
-18.679304391253361
 21
3.7822802277298142
 31
0.0
  0
LINE
  5
53C59
  8
0
 62
     0
 10
-17.121459763951741
 20
5.472707376503898
 30
0.0
 11
-17.121459763951741
 21
5.472707376503898
 31
0.0
  0
LINE
  5
53C5A
  8
0
 62
     0
 10
-17.18775102468798
 20
5.4064161157676596
 30
0.0
 11
-17.18775102468798
 21
5.4064161157676596
 31
0.0
  0
LINE
  5
53C5B
  8
0
 62
     0
 10
-17.254042285424219
 20
5.3401248550314211
 30
0.0
 11
-17.254042285424219
 21
5.3401248550314211
 31
0.0
  0
LINE
  5
53C5C
  8
0
 62
     0
 10
-17.320333546160459
 20
5.2738335942951826
 30
0.0
 11
-17.320333546160459
 21
5.2738335942951826
 31
0.0
  0
LINE
  5
53C5D
  8
0
 62
     0
 10
-17.386624806896702
 20
5.207542333558945
 30
0.0
 11
-17.386624806896702
 21
5.207542333558945
 31
0.0
  0
LINE
  5
53C5E
  8
0
 62
     0
 10
-17.452916067632941
 20
5.1412510728227057
 30
0.0
 11
-17.452916067632941
 21
5.1412510728227057
 31
0.0
  0
LINE
  5
53C5F
  8
0
 62
     0
 10
-17.51920732836918
 20
5.0749598120864681
 30
0.0
 11
-17.51920732836918
 21
5.0749598120864681
 31
0.0
  0
LINE
  5
53C60
  8
0
 62
     0
 10
-17.58549858910542
 20
5.0086685513502287
 30
0.0
 11
-17.58549858910542
 21
5.0086685513502287
 31
0.0
  0
LINE
  5
53C61
  8
0
 62
     0
 10
-17.651789849841659
 20
4.9423772906139911
 30
0.0
 11
-17.651789849841659
 21
4.9423772906139911
 31
0.0
  0
LINE
  5
53C62
  8
0
 62
     0
 10
-17.718081110577899
 20
4.8760860298777517
 30
0.0
 11
-17.718081110577899
 21
4.8760860298777517
 31
0.0
  0
LINE
  5
53C63
  8
0
 62
     0
 10
-17.784372371314142
 20
4.8097947691415142
 30
0.0
 11
-17.784372371314142
 21
4.8097947691415142
 31
0.0
  0
LINE
  5
53C64
  8
0
 62
     0
 10
-17.850663632050381
 20
4.7435035084052748
 30
0.0
 11
-17.850663632050381
 21
4.7435035084052748
 31
0.0
  0
LINE
  5
53C65
  8
0
 62
     0
 10
-17.91695489278662
 20
4.6772122476690372
 30
0.0
 11
-17.91695489278662
 21
4.6772122476690372
 31
0.0
  0
LINE
  5
53C66
  8
0
 62
     0
 10
-17.983246153522849
 20
4.6109209869327978
 30
0.0
 11
-17.983246153522849
 21
4.6109209869327978
 31
0.0
  0
LINE
  5
53C67
  8
0
 62
     0
 10
-18.049537414259088
 20
4.5446297261965602
 30
0.0
 11
-18.049537414259088
 21
4.5446297261965602
 31
0.0
  0
LINE
  5
53C68
  8
0
 62
     0
 10
-18.115828674995331
 20
4.4783384654603209
 30
0.0
 11
-18.115828674995331
 21
4.4783384654603209
 31
0.0
  0
LINE
  5
53C69
  8
0
 62
     0
 10
-18.182119935731571
 20
4.4120472047240833
 30
0.0
 11
-18.182119935731571
 21
4.4120472047240833
 31
0.0
  0
LINE
  5
53C6A
  8
0
 62
     0
 10
-18.24841119646781
 20
4.3457559439878439
 30
0.0
 11
-18.24841119646781
 21
4.3457559439878439
 31
0.0
  0
LINE
  5
53C6B
  8
0
 62
     0
 10
-15.795634549226969
 20
6.7985325912286818
 30
0.0
 11
-15.795634549226969
 21
6.7985325912286818
 31
0.0
  0
LINE
  5
53C6C
  8
0
 62
     0
 10
-18.314702457204049
 20
4.2794646832516046
 30
0.0
 11
-18.314702457204049
 21
4.2794646832516046
 31
0.0
  0
LINE
  5
53C6D
  8
0
 62
     0
 10
-18.380993717940289
 20
4.2131734225153661
 30
0.0
 11
-18.380993717940289
 21
4.2131734225153661
 31
0.0
  0
LINE
  5
53C6E
  8
0
 62
     0
 10
-18.447284978676521
 20
4.1468821617791276
 30
0.0
 11
-18.447284978676521
 21
4.1468821617791276
 31
0.0
  0
LINE
  5
53C6F
  8
0
 62
     0
 10
-18.513576239412771
 20
4.08059090104289
 30
0.0
 11
-18.513576239412771
 21
4.08059090104289
 31
0.0
  0
LINE
  5
53C70
  8
0
 62
     0
 10
-18.57986750014901
 20
4.0142996403066507
 30
0.0
 11
-18.57986750014901
 21
4.0142996403066507
 31
0.0
  0
LINE
  5
53C71
  8
0
 62
     0
 10
-18.646158760885239
 20
3.9480083795704131
 30
0.0
 11
-18.646158760885239
 21
3.9480083795704131
 31
0.0
  0
LINE
  5
53C72
  8
0
 62
     0
 10
-18.712450021621478
 20
3.8817171188341741
 30
0.0
 11
-18.712450021621478
 21
3.8817171188341741
 31
0.0
  0
LINE
  5
53C73
  8
0
 62
     0
 10
-16.889440351374908
 20
5.8373093105532057
 30
0.0
 11
-16.889440351374908
 21
5.8373093105532057
 31
0.0
  0
LINE
  5
53C74
  8
0
 62
     0
 10
-16.955731612111151
 20
5.7710180498169681
 30
0.0
 11
-16.955731612111151
 21
5.7710180498169681
 31
0.0
  0
LINE
  5
53C75
  8
0
 62
     0
 10
-17.022022872847391
 20
5.7047267890807287
 30
0.0
 11
-17.022022872847391
 21
5.7047267890807287
 31
0.0
  0
LINE
  5
53C76
  8
0
 62
     0
 10
-17.088314133583619
 20
5.6384355283444911
 30
0.0
 11
-17.088314133583619
 21
5.6384355283444911
 31
0.0
  0
LINE
  5
53C77
  8
0
 62
     0
 10
-17.154605394319859
 20
5.5721442676082518
 30
0.0
 11
-17.154605394319859
 21
5.5721442676082518
 31
0.0
  0
LINE
  5
53C78
  8
0
 62
     0
 10
-17.220896655056102
 20
5.5058530068720142
 30
0.0
 11
-17.220896655056102
 21
5.5058530068720142
 31
0.0
  0
LINE
  5
53C79
  8
0
 62
     0
 10
-17.287187915792341
 20
5.4395617461357748
 30
0.0
 11
-17.287187915792341
 21
5.4395617461357748
 31
0.0
  0
LINE
  5
53C7A
  8
0
 62
     0
 10
-17.35347917652858
 20
5.3732704853995372
 30
0.0
 11
-17.35347917652858
 21
5.3732704853995372
 31
0.0
  0
LINE
  5
53C7B
  8
0
 62
     0
 10
-17.41977043726482
 20
5.3069792246632979
 30
0.0
 11
-17.41977043726482
 21
5.3069792246632979
 31
0.0
  0
LINE
  5
53C7C
  8
0
 62
     0
 10
-17.486061698001059
 20
5.2406879639270603
 30
0.0
 11
-17.486061698001059
 21
5.2406879639270603
 31
0.0
  0
LINE
  5
53C7D
  8
0
 62
     0
 10
-17.552352958737298
 20
5.1743967031908209
 30
0.0
 11
-17.552352958737298
 21
5.1743967031908209
 31
0.0
  0
LINE
  5
53C7E
  8
0
 62
     0
 10
-17.618644219473541
 20
5.1081054424545833
 30
0.0
 11
-17.618644219473541
 21
5.1081054424545833
 31
0.0
  0
LINE
  5
53C7F
  8
0
 62
     0
 10
-17.684935480209781
 20
5.0418141817183439
 30
0.0
 11
-17.684935480209781
 21
5.0418141817183439
 31
0.0
  0
LINE
  5
53C80
  8
0
 62
     0
 10
-17.75122674094602
 20
4.9755229209821064
 30
0.0
 11
-17.75122674094602
 21
4.9755229209821064
 31
0.0
  0
LINE
  5
53C81
  8
0
 62
     0
 10
-17.817518001682259
 20
4.909231660245867
 30
0.0
 11
-17.817518001682259
 21
4.909231660245867
 31
0.0
  0
LINE
  5
53C82
  8
0
 62
     0
 10
-17.883809262418499
 20
4.8429403995096294
 30
0.0
 11
-17.883809262418499
 21
4.8429403995096294
 31
0.0
  0
LINE
  5
53C83
  8
0
 62
     0
 10
-17.950100523154742
 20
4.77664913877339
 30
0.0
 11
-17.950100523154742
 21
4.77664913877339
 31
0.0
  0
LINE
  5
53C84
  8
0
 62
     0
 10
-18.016391783890981
 20
4.7103578780371516
 30
0.0
 11
-18.016391783890981
 21
4.7103578780371516
 31
0.0
  0
LINE
  5
53C85
  8
0
 62
     0
 10
-18.08268304462721
 20
4.6440666173009131
 30
0.0
 11
-18.08268304462721
 21
4.6440666173009131
 31
0.0
  0
LINE
  5
53C86
  8
0
 62
     0
 10
-18.148974305363449
 20
4.5777753565646746
 30
0.0
 11
-18.148974305363449
 21
4.5777753565646746
 31
0.0
  0
LINE
  5
53C87
  8
0
 62
     0
 10
-18.215265566099688
 20
4.511484095828437
 30
0.0
 11
-18.215265566099688
 21
4.511484095828437
 31
0.0
  0
LINE
  5
53C88
  8
0
 62
     0
 10
-18.281556826835931
 20
4.4451928350921976
 30
0.0
 11
-18.281556826835931
 21
4.4451928350921976
 31
0.0
  0
LINE
  5
53C89
  8
0
 62
     0
 10
-18.347848087572171
 20
4.3789015743559601
 30
0.0
 11
-18.347848087572171
 21
4.3789015743559601
 31
0.0
  0
LINE
  5
53C8A
  8
0
 62
     0
 10
-15.89507144033133
 20
6.8316782215967979
 30
0.0
 11
-15.89507144033133
 21
6.8316782215967979
 31
0.0
  0
LINE
  5
53C8B
  8
0
 62
     0
 10
-15.96136270106757
 20
6.7653869608605604
 30
0.0
 11
-15.96136270106757
 21
6.7653869608605604
 31
0.0
  0
LINE
  5
53C8C
  8
0
 62
     0
 10
-16.027653961803811
 20
6.699095700124321
 30
0.0
 11
-16.027653961803811
 21
6.699095700124321
 31
0.0
  0
LINE
  5
53C8D
  8
0
 62
     0
 10
-16.09394522254005
 20
6.6328044393880834
 30
0.0
 11
-16.09394522254005
 21
6.6328044393880834
 31
0.0
  0
LINE
  5
53C8E
  8
0
 62
     0
 10
-18.41413934830841
 20
4.3126103136197216
 30
0.0
 11
-18.41413934830841
 21
4.3126103136197216
 31
0.0
  0
LINE
  5
53C8F
  8
0
 62
     0
 10
-18.48043060904465
 20
4.2463190528834831
 30
0.0
 11
-18.48043060904465
 21
4.2463190528834831
 31
0.0
  0
LINE
  5
53C90
  8
0
 62
     0
 10
-18.546721869780889
 20
4.1800277921472446
 30
0.0
 11
-18.546721869780889
 21
4.1800277921472446
 31
0.0
  0
LINE
  5
53C91
  8
0
 62
     0
 10
-18.613013130517128
 20
4.113736531411007
 30
0.0
 11
-18.613013130517128
 21
4.113736531411007
 31
0.0
  0
LINE
  5
53C92
  8
0
 62
     0
 10
-18.679304391253371
 20
4.0474452706747677
 30
0.0
 11
-18.679304391253371
 21
4.0474452706747677
 31
0.0
  0
LINE
  5
53C93
  8
0
 62
     0
 10
-18.745595651989611
 20
3.9811540099385292
 30
0.0
 11
-18.745595651989611
 21
3.9811540099385292
 31
0.0
  0
LINE
  5
53C94
  8
0
 62
     0
 10
-18.811886912725839
 20
3.9148627492022898
 30
0.0
 11
-18.811886912725839
 21
3.9148627492022898
 31
0.0
  0
LINE
  5
53C95
  8
0
 62
     0
 10
-16.723712199534301
 20
6.1356199838662819
 30
0.0
 11
-16.723712199534301
 21
6.1356199838662819
 31
0.0
  0
LINE
  5
53C96
  8
0
 62
     0
 10
-16.79000346027054
 20
6.0693287231300443
 30
0.0
 11
-16.79000346027054
 21
6.0693287231300443
 31
0.0
  0
LINE
  5
53C97
  8
0
 62
     0
 10
-16.85629472100678
 20
6.003037462393805
 30
0.0
 11
-16.85629472100678
 21
6.003037462393805
 31
0.0
  0
LINE
  5
53C98
  8
0
 62
     0
 10
-16.922585981743019
 20
5.9367462016575674
 30
0.0
 11
-16.922585981743019
 21
5.9367462016575674
 31
0.0
  0
LINE
  5
53C99
  8
0
 62
     0
 10
-16.988877242479258
 20
5.870454940921328
 30
0.0
 11
-16.988877242479258
 21
5.870454940921328
 31
0.0
  0
LINE
  5
53C9A
  8
0
 62
     0
 10
-17.055168503215501
 20
5.8041636801850904
 30
0.0
 11
-17.055168503215501
 21
5.8041636801850904
 31
0.0
  0
LINE
  5
53C9B
  8
0
 62
     0
 10
-17.121459763951741
 20
5.7378724194488511
 30
0.0
 11
-17.121459763951741
 21
5.7378724194488511
 31
0.0
  0
LINE
  5
53C9C
  8
0
 62
     0
 10
-17.18775102468798
 20
5.6715811587126126
 30
0.0
 11
-17.18775102468798
 21
5.6715811587126126
 31
0.0
  0
LINE
  5
53C9D
  8
0
 62
     0
 10
-17.254042285424219
 20
5.605289897976375
 30
0.0
 11
-17.254042285424219
 21
5.605289897976375
 31
0.0
  0
LINE
  5
53C9E
  8
0
 62
     0
 10
-17.320333546160459
 20
5.5389986372401356
 30
0.0
 11
-17.320333546160459
 21
5.5389986372401356
 31
0.0
  0
LINE
  5
53C9F
  8
0
 62
     0
 10
-17.386624806896702
 20
5.472707376503898
 30
0.0
 11
-17.386624806896702
 21
5.472707376503898
 31
0.0
  0
LINE
  5
53CA0
  8
0
 62
     0
 10
-17.45291606763293
 20
5.4064161157676587
 30
0.0
 11
-17.45291606763293
 21
5.4064161157676587
 31
0.0
  0
LINE
  5
53CA1
  8
0
 62
     0
 10
-17.51920732836917
 20
5.3401248550314211
 30
0.0
 11
-17.51920732836917
 21
5.3401248550314211
 31
0.0
  0
LINE
  5
53CA2
  8
0
 62
     0
 10
-17.585498589105409
 20
5.2738335942951817
 30
0.0
 11
-17.585498589105409
 21
5.2738335942951817
 31
0.0
  0
LINE
  5
53CA3
  8
0
 62
     0
 10
-17.651789849841649
 20
5.2075423335589441
 30
0.0
 11
-17.651789849841649
 21
5.2075423335589441
 31
0.0
  0
LINE
  5
53CA4
  8
0
 62
     0
 10
-17.718081110577891
 20
5.1412510728227048
 30
0.0
 11
-17.718081110577891
 21
5.1412510728227048
 31
0.0
  0
LINE
  5
53CA5
  8
0
 62
     0
 10
-17.784372371314131
 20
5.0749598120864672
 30
0.0
 11
-17.784372371314131
 21
5.0749598120864672
 31
0.0
  0
LINE
  5
53CA6
  8
0
 62
     0
 10
-17.85066363205037
 20
5.0086685513502278
 30
0.0
 11
-17.85066363205037
 21
5.0086685513502278
 31
0.0
  0
LINE
  5
53CA7
  8
0
 62
     0
 10
-17.91695489278661
 20
4.9423772906139902
 30
0.0
 11
-17.91695489278661
 21
4.9423772906139902
 31
0.0
  0
LINE
  5
53CA8
  8
0
 62
     0
 10
-17.983246153522849
 20
4.8760860298777509
 30
0.0
 11
-17.983246153522849
 21
4.8760860298777509
 31
0.0
  0
LINE
  5
53CA9
  8
0
 62
     0
 10
-18.049537414259088
 20
4.8097947691415133
 30
0.0
 11
-18.049537414259088
 21
4.8097947691415133
 31
0.0
  0
LINE
  5
53CAA
  8
0
 62
     0
 10
-18.115828674995331
 20
4.7435035084052739
 30
0.0
 11
-18.115828674995331
 21
4.7435035084052739
 31
0.0
  0
LINE
  5
53CAB
  8
0
 62
     0
 10
-18.182119935731571
 20
4.6772122476690363
 30
0.0
 11
-18.182119935731571
 21
4.6772122476690363
 31
0.0
  0
LINE
  5
53CAC
  8
0
 62
     0
 10
-18.24841119646781
 20
4.6109209869327969
 30
0.0
 11
-18.24841119646781
 21
4.6109209869327969
 31
0.0
  0
LINE
  5
53CAD
  8
0
 62
     0
 10
-18.314702457204049
 20
4.5446297261965594
 30
0.0
 11
-18.314702457204049
 21
4.5446297261965594
 31
0.0
  0
LINE
  5
53CAE
  8
0
 62
     0
 10
-18.380993717940289
 20
4.47833846546032
 30
0.0
 11
-18.380993717940289
 21
4.47833846546032
 31
0.0
  0
LINE
  5
53CAF
  8
0
 62
     0
 10
-18.447284978676521
 20
4.4120472047240824
 30
0.0
 11
-18.447284978676521
 21
4.4120472047240824
 31
0.0
  0
LINE
  5
53CB0
  8
0
 62
     0
 10
-15.994508331435689
 20
6.8648238519649176
 30
0.0
 11
-15.994508331435689
 21
6.8648238519649176
 31
0.0
  0
LINE
  5
53CB1
  8
0
 62
     0
 10
-16.060799592171929
 20
6.79853259122868
 30
0.0
 11
-16.060799592171929
 21
6.79853259122868
 31
0.0
  0
LINE
  5
53CB2
  8
0
 62
     0
 10
-16.127090852908161
 20
6.7322413304924407
 30
0.0
 11
-16.127090852908161
 21
6.7322413304924407
 31
0.0
  0
LINE
  5
53CB3
  8
0
 62
     0
 10
-16.193382113644411
 20
6.6659500697562031
 30
0.0
 11
-16.193382113644411
 21
6.6659500697562031
 31
0.0
  0
LINE
  5
53CB4
  8
0
 62
     0
 10
-16.25967337438065
 20
6.5996588090199637
 30
0.0
 11
-16.25967337438065
 21
6.5996588090199637
 31
0.0
  0
LINE
  5
53CB5
  8
0
 62
     0
 10
-16.325964635116879
 20
6.5333675482837261
 30
0.0
 11
-16.325964635116879
 21
6.5333675482837261
 31
0.0
  0
LINE
  5
53CB6
  8
0
 62
     0
 10
-16.392255895853118
 20
6.4670762875474868
 30
0.0
 11
-16.392255895853118
 21
6.4670762875474868
 31
0.0
  0
LINE
  5
53CB7
  8
0
 62
     0
 10
-18.51357623941276
 20
4.3457559439878413
 30
0.0
 11
-18.51357623941276
 21
4.3457559439878413
 31
0.0
  0
LINE
  5
53CB8
  8
0
 62
     0
 10
-18.579867500149
 20
4.2794646832516019
 30
0.0
 11
-18.579867500149
 21
4.2794646832516019
 31
0.0
  0
LINE
  5
53CB9
  8
0
 62
     0
 10
-18.646158760885239
 20
4.2131734225153643
 30
0.0
 11
-18.646158760885239
 21
4.2131734225153643
 31
0.0
  0
LINE
  5
53CBA
  8
0
 62
     0
 10
-18.712450021621478
 20
4.1468821617791249
 30
0.0
 11
-18.712450021621478
 21
4.1468821617791249
 31
0.0
  0
LINE
  5
53CBB
  8
0
 62
     0
 10
-18.778741282357721
 20
4.0805909010428874
 30
0.0
 11
-18.778741282357721
 21
4.0805909010428874
 31
0.0
  0
LINE
  5
53CBC
  8
0
 62
     0
 10
-18.845032543093961
 20
4.014299640306648
 30
0.0
 11
-18.845032543093961
 21
4.014299640306648
 31
0.0
  0
LINE
  5
53CBD
  8
0
 62
     0
 10
-18.9113238038302
 20
3.94800837957041
 30
0.0
 11
-18.9113238038302
 21
3.94800837957041
 31
0.0
  0
LINE
  5
53CBE
  8
0
 62
     0
 10
-16.624275308429961
 20
6.3676393964431286
 30
0.0
 11
-16.624275308429961
 21
6.3676393964431286
 31
0.0
  0
LINE
  5
53CBF
  8
0
 62
     0
 10
-16.69056656916618
 20
6.301348135706883
 30
0.0
 11
-16.69056656916618
 21
6.301348135706883
 31
0.0
  0
LINE
  5
53CC0
  8
0
 62
     0
 10
-16.756857829902419
 20
6.2350568749706436
 30
0.0
 11
-16.756857829902419
 21
6.2350568749706436
 31
0.0
  0
LINE
  5
53CC1
  8
0
 62
     0
 10
-16.823149090638658
 20
6.1687656142344061
 30
0.0
 11
-16.823149090638658
 21
6.1687656142344061
 31
0.0
  0
LINE
  5
53CC2
  8
0
 62
     0
 10
-16.889440351374901
 20
6.1024743534981667
 30
0.0
 11
-16.889440351374901
 21
6.1024743534981667
 31
0.0
  0
LINE
  5
53CC3
  8
0
 62
     0
 10
-16.955731612111141
 20
6.0361830927619291
 30
0.0
 11
-16.955731612111141
 21
6.0361830927619291
 31
0.0
  0
LINE
  5
53CC4
  8
0
 62
     0
 10
-17.02202287284738
 20
5.9698918320256897
 30
0.0
 11
-17.02202287284738
 21
5.9698918320256897
 31
0.0
  0
LINE
  5
53CC5
  8
0
 62
     0
 10
-17.088314133583619
 20
5.9036005712894521
 30
0.0
 11
-17.088314133583619
 21
5.9036005712894521
 31
0.0
  0
LINE
  5
53CC6
  8
0
 62
     0
 10
-17.154605394319859
 20
5.8373093105532128
 30
0.0
 11
-17.154605394319859
 21
5.8373093105532128
 31
0.0
  0
LINE
  5
53CC7
  8
0
 62
     0
 10
-17.220896655056102
 20
5.7710180498169752
 30
0.0
 11
-17.220896655056102
 21
5.7710180498169752
 31
0.0
  0
LINE
  5
53CC8
  8
0
 62
     0
 10
-17.287187915792341
 20
5.7047267890807358
 30
0.0
 11
-17.287187915792341
 21
5.7047267890807358
 31
0.0
  0
LINE
  5
53CC9
  8
0
 62
     0
 10
-17.35347917652857
 20
5.6384355283444982
 30
0.0
 11
-17.35347917652857
 21
5.6384355283444982
 31
0.0
  0
LINE
  5
53CCA
  8
0
 62
     0
 10
-17.419770437264809
 20
5.5721442676082589
 30
0.0
 11
-17.419770437264809
 21
5.5721442676082589
 31
0.0
  0
LINE
  5
53CCB
  8
0
 62
     0
 10
-17.486061698001048
 20
5.5058530068720213
 30
0.0
 11
-17.486061698001048
 21
5.5058530068720213
 31
0.0
  0
LINE
  5
53CCC
  8
0
 62
     0
 10
-17.552352958737291
 20
5.4395617461357819
 30
0.0
 11
-17.552352958737291
 21
5.4395617461357819
 31
0.0
  0
LINE
  5
53CCD
  8
0
 62
     0
 10
-17.618644219473531
 20
5.3732704853995443
 30
0.0
 11
-17.618644219473531
 21
5.3732704853995443
 31
0.0
  0
LINE
  5
53CCE
  8
0
 62
     0
 10
-17.68493548020977
 20
5.306979224663305
 30
0.0
 11
-17.68493548020977
 21
5.306979224663305
 31
0.0
  0
LINE
  5
53CCF
  8
0
 62
     0
 10
-17.751226740946009
 20
5.2406879639270674
 30
0.0
 11
-17.751226740946009
 21
5.2406879639270674
 31
0.0
  0
LINE
  5
53CD0
  8
0
 62
     0
 10
-17.817518001682249
 20
5.174396703190828
 30
0.0
 11
-17.817518001682249
 21
5.174396703190828
 31
0.0
  0
LINE
  5
53CD1
  8
0
 62
     0
 10
-17.883809262418492
 20
5.1081054424545904
 30
0.0
 11
-17.883809262418492
 21
5.1081054424545904
 31
0.0
  0
LINE
  5
53CD2
  8
0
 62
     0
 10
-17.950100523154731
 20
5.0418141817183511
 30
0.0
 11
-17.950100523154731
 21
5.0418141817183511
 31
0.0
  0
LINE
  5
53CD3
  8
0
 62
     0
 10
-18.01639178389097
 20
4.9755229209821126
 30
0.0
 11
-18.01639178389097
 21
4.9755229209821126
 31
0.0
  0
LINE
  5
53CD4
  8
0
 62
     0
 10
-18.08268304462721
 20
4.9092316602458741
 30
0.0
 11
-18.08268304462721
 21
4.9092316602458741
 31
0.0
  0
LINE
  5
53CD5
  8
0
 62
     0
 10
-18.148974305363449
 20
4.8429403995096356
 30
0.0
 11
-18.148974305363449
 21
4.8429403995096356
 31
0.0
  0
LINE
  5
53CD6
  8
0
 62
     0
 10
-18.215265566099688
 20
4.776649138773398
 30
0.0
 11
-18.215265566099688
 21
4.776649138773398
 31
0.0
  0
LINE
  5
53CD7
  8
0
 62
     0
 10
-18.281556826835931
 20
4.7103578780371587
 30
0.0
 11
-18.281556826835931
 21
4.7103578780371587
 31
0.0
  0
LINE
  5
53CD8
  8
0
 62
     0
 10
-18.34784808757216
 20
4.6440666173009211
 30
0.0
 11
-18.34784808757216
 21
4.6440666173009211
 31
0.0
  0
LINE
  5
53CD9
  8
0
 62
     0
 10
-18.41413934830841
 20
4.5777753565646817
 30
0.0
 11
-18.41413934830841
 21
4.5777753565646817
 31
0.0
  0
LINE
  5
53CDA
  8
0
 62
     0
 10
-18.480430609044639
 20
4.5114840958284441
 30
0.0
 11
-18.480430609044639
 21
4.5114840958284441
 31
0.0
  0
LINE
  5
53CDB
  8
0
 62
     0
 10
-18.546721869780882
 20
4.4451928350922048
 30
0.0
 11
-18.546721869780882
 21
4.4451928350922048
 31
0.0
  0
LINE
  5
53CDC
  8
0
 62
     0
 10
-16.0276539618038
 20
6.9642607430692758
 30
0.0
 11
-16.0276539618038
 21
6.9642607430692758
 31
0.0
  0
LINE
  5
53CDD
  8
0
 62
     0
 10
-16.093945222540039
 20
6.8979694823330382
 30
0.0
 11
-16.093945222540039
 21
6.8979694823330382
 31
0.0
  0
LINE
  5
53CDE
  8
0
 62
     0
 10
-16.160236483276279
 20
6.8316782215967988
 30
0.0
 11
-16.160236483276279
 21
6.8316782215967988
 31
0.0
  0
LINE
  5
53CDF
  8
0
 62
     0
 10
-16.226527744012522
 20
6.7653869608605612
 30
0.0
 11
-16.226527744012522
 21
6.7653869608605612
 31
0.0
  0
LINE
  5
53CE0
  8
0
 62
     0
 10
-16.292819004748761
 20
6.6990957001243219
 30
0.0
 11
-16.292819004748761
 21
6.6990957001243219
 31
0.0
  0
LINE
  5
53CE1
  8
0
 62
     0
 10
-16.359110265485
 20
6.6328044393880843
 30
0.0
 11
-16.359110265485
 21
6.6328044393880843
 31
0.0
  0
LINE
  5
53CE2
  8
0
 62
     0
 10
-16.42540152622124
 20
6.5665131786518449
 30
0.0
 11
-16.42540152622124
 21
6.5665131786518449
 31
0.0
  0
LINE
  5
53CE3
  8
0
 62
     0
 10
-16.491692786957479
 20
6.5002219179156073
 30
0.0
 11
-16.491692786957479
 21
6.5002219179156073
 31
0.0
  0
LINE
  5
53CE4
  8
0
 62
     0
 10
-18.613013130517121
 20
4.3789015743559636
 30
0.0
 11
-18.613013130517121
 21
4.3789015743559636
 31
0.0
  0
LINE
  5
53CE5
  8
0
 62
     0
 10
-18.679304391253361
 20
4.312610313619726
 30
0.0
 11
-18.679304391253361
 21
4.312610313619726
 31
0.0
  0
LINE
  5
53CE6
  8
0
 62
     0
 10
-18.7455956519896
 20
4.2463190528834867
 30
0.0
 11
-18.7455956519896
 21
4.2463190528834867
 31
0.0
  0
LINE
  5
53CE7
  8
0
 62
     0
 10
-18.811886912725839
 20
4.1800277921472491
 30
0.0
 11
-18.811886912725839
 21
4.1800277921472491
 31
0.0
  0
LINE
  5
53CE8
  8
0
 62
     0
 10
-18.878178173462079
 20
4.1137365314110097
 30
0.0
 11
-18.878178173462079
 21
4.1137365314110097
 31
0.0
  0
LINE
  5
53CE9
  8
0
 62
     0
 10
-18.944469434198322
 20
4.0474452706747721
 30
0.0
 11
-18.944469434198322
 21
4.0474452706747721
 31
0.0
  0
LINE
  5
53CEA
  8
0
 62
     0
 10
-19.010760694934561
 20
3.9811540099385332
 30
0.0
 11
-19.010760694934561
 21
3.9811540099385332
 31
0.0
  0
LINE
  5
53CEB
  8
0
 62
     0
 10
-16.657420938798079
 20
6.4670762875474859
 30
0.0
 11
-16.657420938798079
 21
6.4670762875474859
 31
0.0
  0
LINE
  5
53CEC
  8
0
 62
     0
 10
-16.723712199534319
 20
6.4007850268112483
 30
0.0
 11
-16.723712199534319
 21
6.4007850268112483
 31
0.0
  0
LINE
  5
53CED
  8
0
 62
     0
 10
-16.79000346027054
 20
6.3344937660749983
 30
0.0
 11
-16.79000346027054
 21
6.3344937660749983
 31
0.0
  0
LINE
  5
53CEE
  8
0
 62
     0
 10
-16.85629472100678
 20
6.2682025053387589
 30
0.0
 11
-16.85629472100678
 21
6.2682025053387589
 31
0.0
  0
LINE
  5
53CEF
  8
0
 62
     0
 10
-16.922585981743019
 20
6.2019112446025213
 30
0.0
 11
-16.922585981743019
 21
6.2019112446025213
 31
0.0
  0
LINE
  5
53CF0
  8
0
 62
     0
 10
-16.988877242479258
 20
6.1356199838662819
 30
0.0
 11
-16.988877242479258
 21
6.1356199838662819
 31
0.0
  0
LINE
  5
53CF1
  8
0
 62
     0
 10
-17.055168503215501
 20
6.0693287231300443
 30
0.0
 11
-17.055168503215501
 21
6.0693287231300443
 31
0.0
  0
LINE
  5
53CF2
  8
0
 62
     0
 10
-17.121459763951741
 20
6.003037462393805
 30
0.0
 11
-17.121459763951741
 21
6.003037462393805
 31
0.0
  0
LINE
  5
53CF3
  8
0
 62
     0
 10
-17.18775102468798
 20
5.9367462016575674
 30
0.0
 11
-17.18775102468798
 21
5.9367462016575674
 31
0.0
  0
LINE
  5
53CF4
  8
0
 62
     0
 10
-17.254042285424219
 20
5.870454940921328
 30
0.0
 11
-17.254042285424219
 21
5.870454940921328
 31
0.0
  0
LINE
  5
53CF5
  8
0
 62
     0
 10
-17.320333546160459
 20
5.8041636801850904
 30
0.0
 11
-17.320333546160459
 21
5.8041636801850904
 31
0.0
  0
LINE
  5
53CF6
  8
0
 62
     0
 10
-17.386624806896702
 20
5.7378724194488511
 30
0.0
 11
-17.386624806896702
 21
5.7378724194488511
 31
0.0
  0
LINE
  5
53CF7
  8
0
 62
     0
 10
-17.45291606763293
 20
5.6715811587126126
 30
0.0
 11
-17.45291606763293
 21
5.6715811587126126
 31
0.0
  0
LINE
  5
53CF8
  8
0
 62
     0
 10
-17.51920732836917
 20
5.605289897976375
 30
0.0
 11
-17.51920732836917
 21
5.605289897976375
 31
0.0
  0
LINE
  5
53CF9
  8
0
 62
     0
 10
-17.585498589105409
 20
5.5389986372401356
 30
0.0
 11
-17.585498589105409
 21
5.5389986372401356
 31
0.0
  0
LINE
  5
53CFA
  8
0
 62
     0
 10
-17.651789849841649
 20
5.472707376503898
 30
0.0
 11
-17.651789849841649
 21
5.472707376503898
 31
0.0
  0
LINE
  5
53CFB
  8
0
 62
     0
 10
-17.718081110577891
 20
5.4064161157676587
 30
0.0
 11
-17.718081110577891
 21
5.4064161157676587
 31
0.0
  0
LINE
  5
53CFC
  8
0
 62
     0
 10
-17.784372371314131
 20
5.3401248550314211
 30
0.0
 11
-17.784372371314131
 21
5.3401248550314211
 31
0.0
  0
LINE
  5
53CFD
  8
0
 62
     0
 10
-17.85066363205037
 20
5.2738335942951817
 30
0.0
 11
-17.85066363205037
 21
5.2738335942951817
 31
0.0
  0
LINE
  5
53CFE
  8
0
 62
     0
 10
-17.91695489278661
 20
5.2075423335589441
 30
0.0
 11
-17.91695489278661
 21
5.2075423335589441
 31
0.0
  0
LINE
  5
53CFF
  8
0
 62
     0
 10
-17.983246153522849
 20
5.1412510728227048
 30
0.0
 11
-17.983246153522849
 21
5.1412510728227048
 31
0.0
  0
LINE
  5
53D00
  8
0
 62
     0
 10
-18.049537414259088
 20
5.0749598120864672
 30
0.0
 11
-18.049537414259088
 21
5.0749598120864672
 31
0.0
  0
LINE
  5
53D01
  8
0
 62
     0
 10
-18.115828674995331
 20
5.0086685513502278
 30
0.0
 11
-18.115828674995331
 21
5.0086685513502278
 31
0.0
  0
LINE
  5
53D02
  8
0
 62
     0
 10
-18.182119935731571
 20
4.9423772906139902
 30
0.0
 11
-18.182119935731571
 21
4.9423772906139902
 31
0.0
  0
LINE
  5
53D03
  8
0
 62
     0
 10
-18.24841119646781
 20
4.8760860298777509
 30
0.0
 11
-18.24841119646781
 21
4.8760860298777509
 31
0.0
  0
LINE
  5
53D04
  8
0
 62
     0
 10
-18.314702457204049
 20
4.8097947691415133
 30
0.0
 11
-18.314702457204049
 21
4.8097947691415133
 31
0.0
  0
LINE
  5
53D05
  8
0
 62
     0
 10
-18.380993717940289
 20
4.7435035084052739
 30
0.0
 11
-18.380993717940289
 21
4.7435035084052739
 31
0.0
  0
LINE
  5
53D06
  8
0
 62
     0
 10
-18.447284978676521
 20
4.6772122476690363
 30
0.0
 11
-18.447284978676521
 21
4.6772122476690363
 31
0.0
  0
LINE
  5
53D07
  8
0
 62
     0
 10
-18.513576239412771
 20
4.6109209869327969
 30
0.0
 11
-18.513576239412771
 21
4.6109209869327969
 31
0.0
  0
LINE
  5
53D08
  8
0
 62
     0
 10
-18.57986750014901
 20
4.5446297261965594
 30
0.0
 11
-18.57986750014901
 21
4.5446297261965594
 31
0.0
  0
LINE
  5
53D09
  8
0
 62
     0
 10
-16.127090852908172
 20
6.9974063734373919
 30
0.0
 11
-16.127090852908172
 21
6.9974063734373919
 31
0.0
  0
LINE
  5
53D0A
  8
0
 62
     0
 10
-16.193382113644411
 20
6.9311151127011543
 30
0.0
 11
-16.193382113644411
 21
6.9311151127011543
 31
0.0
  0
LINE
  5
53D0B
  8
0
 62
     0
 10
-16.25967337438065
 20
6.864823851964915
 30
0.0
 11
-16.25967337438065
 21
6.864823851964915
 31
0.0
  0
LINE
  5
53D0C
  8
0
 62
     0
 10
-16.32596463511689
 20
6.7985325912286774
 30
0.0
 11
-16.32596463511689
 21
6.7985325912286774
 31
0.0
  0
LINE
  5
53D0D
  8
0
 62
     0
 10
-16.392255895853129
 20
6.732241330492438
 30
0.0
 11
-16.392255895853129
 21
6.732241330492438
 31
0.0
  0
LINE
  5
53D0E
  8
0
 62
     0
 10
-16.458547156589368
 20
6.6659500697562004
 30
0.0
 11
-16.458547156589368
 21
6.6659500697562004
 31
0.0
  0
LINE
  5
53D0F
  8
0
 62
     0
 10
-16.524838417325611
 20
6.599658809019961
 30
0.0
 11
-16.524838417325611
 21
6.599658809019961
 31
0.0
  0
LINE
  5
53D10
  8
0
 62
     0
 10
-18.646158760885239
 20
4.4783384654603191
 30
0.0
 11
-18.646158760885239
 21
4.4783384654603191
 31
0.0
  0
LINE
  5
53D11
  8
0
 62
     0
 10
-18.712450021621478
 20
4.4120472047240806
 30
0.0
 11
-18.712450021621478
 21
4.4120472047240806
 31
0.0
  0
LINE
  5
53D12
  8
0
 62
     0
 10
-18.778741282357721
 20
4.345755943987843
 30
0.0
 11
-18.778741282357721
 21
4.345755943987843
 31
0.0
  0
LINE
  5
53D13
  8
0
 62
     0
 10
-18.845032543093961
 20
4.2794646832516037
 30
0.0
 11
-18.845032543093961
 21
4.2794646832516037
 31
0.0
  0
LINE
  5
53D14
  8
0
 62
     0
 10
-18.9113238038302
 20
4.2131734225153661
 30
0.0
 11
-18.9113238038302
 21
4.2131734225153661
 31
0.0
  0
LINE
  5
53D15
  8
0
 62
     0
 10
-18.977615064566439
 20
4.1468821617791267
 30
0.0
 11
-18.977615064566439
 21
4.1468821617791267
 31
0.0
  0
LINE
  5
53D16
  8
0
 62
     0
 10
-19.043906325302679
 20
4.0805909010428891
 30
0.0
 11
-19.043906325302679
 21
4.0805909010428891
 31
0.0
  0
LINE
  5
53D17
  8
0
 62
     0
 10
-19.110197586038922
 20
4.0142996403066498
 30
0.0
 11
-19.110197586038922
 21
4.0142996403066498
 31
0.0
  0
LINE
  5
53D18
  8
0
 62
     0
 10
-16.75685782990244
 20
6.5002219179156064
 30
0.0
 11
-16.75685782990244
 21
6.5002219179156064
 31
0.0
  0
LINE
  5
53D19
  8
0
 62
     0
 10
-16.823149090638658
 20
6.4339306571793591
 30
0.0
 11
-16.823149090638658
 21
6.4339306571793591
 31
0.0
  0
LINE
  5
53D1A
  8
0
 62
     0
 10
-16.889440351374901
 20
6.3676393964431197
 30
0.0
 11
-16.889440351374901
 21
6.3676393964431197
 31
0.0
  0
LINE
  5
53D1B
  8
0
 62
     0
 10
-16.955731612111141
 20
6.3013481357068821
 30
0.0
 11
-16.955731612111141
 21
6.3013481357068821
 31
0.0
  0
LINE
  5
53D1C
  8
0
 62
     0
 10
-17.02202287284738
 20
6.2350568749706428
 30
0.0
 11
-17.02202287284738
 21
6.2350568749706428
 31
0.0
  0
LINE
  5
53D1D
  8
0
 62
     0
 10
-17.088314133583619
 20
6.1687656142344052
 30
0.0
 11
-17.088314133583619
 21
6.1687656142344052
 31
0.0
  0
LINE
  5
53D1E
  8
0
 62
     0
 10
-17.154605394319859
 20
6.1024743534981658
 30
0.0
 11
-17.154605394319859
 21
6.1024743534981658
 31
0.0
  0
LINE
  5
53D1F
  8
0
 62
     0
 10
-17.220896655056102
 20
6.0361830927619282
 30
0.0
 11
-17.220896655056102
 21
6.0361830927619282
 31
0.0
  0
LINE
  5
53D20
  8
0
 62
     0
 10
-17.287187915792341
 20
5.9698918320256888
 30
0.0
 11
-17.287187915792341
 21
5.9698918320256888
 31
0.0
  0
LINE
  5
53D21
  8
0
 62
     0
 10
-17.35347917652858
 20
5.9036005712894513
 30
0.0
 11
-17.35347917652858
 21
5.9036005712894513
 31
0.0
  0
LINE
  5
53D22
  8
0
 62
     0
 10
-17.41977043726482
 20
5.8373093105532119
 30
0.0
 11
-17.41977043726482
 21
5.8373093105532119
 31
0.0
  0
LINE
  5
53D23
  8
0
 62
     0
 10
-17.486061698001059
 20
5.7710180498169743
 30
0.0
 11
-17.486061698001059
 21
5.7710180498169743
 31
0.0
  0
LINE
  5
53D24
  8
0
 62
     0
 10
-17.552352958737298
 20
5.7047267890807349
 30
0.0
 11
-17.552352958737298
 21
5.7047267890807349
 31
0.0
  0
LINE
  5
53D25
  8
0
 62
     0
 10
-17.618644219473541
 20
5.6384355283444973
 30
0.0
 11
-17.618644219473541
 21
5.6384355283444973
 31
0.0
  0
LINE
  5
53D26
  8
0
 62
     0
 10
-17.684935480209781
 20
5.572144267608258
 30
0.0
 11
-17.684935480209781
 21
5.572144267608258
 31
0.0
  0
LINE
  5
53D27
  8
0
 62
     0
 10
-17.75122674094602
 20
5.5058530068720204
 30
0.0
 11
-17.75122674094602
 21
5.5058530068720204
 31
0.0
  0
LINE
  5
53D28
  8
0
 62
     0
 10
-17.817518001682249
 20
5.439561746135781
 30
0.0
 11
-17.817518001682249
 21
5.439561746135781
 31
0.0
  0
LINE
  5
53D29
  8
0
 62
     0
 10
-17.883809262418492
 20
5.3732704853995434
 30
0.0
 11
-17.883809262418492
 21
5.3732704853995434
 31
0.0
  0
LINE
  5
53D2A
  8
0
 62
     0
 10
-17.950100523154731
 20
5.3069792246633041
 30
0.0
 11
-17.950100523154731
 21
5.3069792246633041
 31
0.0
  0
LINE
  5
53D2B
  8
0
 62
     0
 10
-18.01639178389097
 20
5.2406879639270656
 30
0.0
 11
-18.01639178389097
 21
5.2406879639270656
 31
0.0
  0
LINE
  5
53D2C
  8
0
 62
     0
 10
-18.08268304462721
 20
5.174396703190828
 30
0.0
 11
-18.08268304462721
 21
5.174396703190828
 31
0.0
  0
LINE
  5
53D2D
  8
0
 62
     0
 10
-18.148974305363449
 20
5.1081054424545886
 30
0.0
 11
-18.148974305363449
 21
5.1081054424545886
 31
0.0
  0
LINE
  5
53D2E
  8
0
 62
     0
 10
-18.215265566099688
 20
5.0418141817183511
 30
0.0
 11
-18.215265566099688
 21
5.0418141817183511
 31
0.0
  0
LINE
  5
53D2F
  8
0
 62
     0
 10
-18.281556826835931
 20
4.9755229209821117
 30
0.0
 11
-18.281556826835931
 21
4.9755229209821117
 31
0.0
  0
LINE
  5
53D30
  8
0
 62
     0
 10
-18.347848087572171
 20
4.9092316602458741
 30
0.0
 11
-18.347848087572171
 21
4.9092316602458741
 31
0.0
  0
LINE
  5
53D31
  8
0
 62
     0
 10
-18.41413934830841
 20
4.8429403995096347
 30
0.0
 11
-18.41413934830841
 21
4.8429403995096347
 31
0.0
  0
LINE
  5
53D32
  8
0
 62
     0
 10
-18.48043060904465
 20
4.7766491387733971
 30
0.0
 11
-18.48043060904465
 21
4.7766491387733971
 31
0.0
  0
LINE
  5
53D33
  8
0
 62
     0
 10
-18.546721869780889
 20
4.7103578780371578
 30
0.0
 11
-18.546721869780889
 21
4.7103578780371578
 31
0.0
  0
LINE
  5
53D34
  8
0
 62
     0
 10
-18.613013130517128
 20
4.6440666173009202
 30
0.0
 11
-18.613013130517128
 21
4.6440666173009202
 31
0.0
  0
LINE
  5
53D35
  8
0
 62
     0
 10
-18.679304391253371
 20
4.5777753565646808
 30
0.0
 11
-18.679304391253371
 21
4.5777753565646808
 31
0.0
  0
LINE
  5
53D36
  8
0
 62
     0
 10
-16.226527744012522
 20
7.0305520038055151
 30
0.0
 11
-16.226527744012522
 21
7.0305520038055151
 31
0.0
  0
LINE
  5
53D37
  8
0
 62
     0
 10
-16.292819004748761
 20
6.9642607430692758
 30
0.0
 11
-16.292819004748761
 21
6.9642607430692758
 31
0.0
  0
LINE
  5
53D38
  8
0
 62
     0
 10
-16.359110265485
 20
6.8979694823330382
 30
0.0
 11
-16.359110265485
 21
6.8979694823330382
 31
0.0
  0
LINE
  5
53D39
  8
0
 62
     0
 10
-16.42540152622124
 20
6.8316782215967988
 30
0.0
 11
-16.42540152622124
 21
6.8316782215967988
 31
0.0
  0
LINE
  5
53D3A
  8
0
 62
     0
 10
-16.491692786957479
 20
6.7653869608605612
 30
0.0
 11
-16.491692786957479
 21
6.7653869608605612
 31
0.0
  0
LINE
  5
53D3B
  8
0
 62
     0
 10
-16.557984047693719
 20
6.6990957001243219
 30
0.0
 11
-16.557984047693719
 21
6.6990957001243219
 31
0.0
  0
LINE
  5
53D3C
  8
0
 62
     0
 10
-16.624275308429961
 20
6.6328044393880843
 30
0.0
 11
-16.624275308429961
 21
6.6328044393880843
 31
0.0
  0
LINE
  5
53D3D
  8
0
 62
     0
 10
-18.7455956519896
 20
4.5114840958284397
 30
0.0
 11
-18.7455956519896
 21
4.5114840958284397
 31
0.0
  0
LINE
  5
53D3E
  8
0
 62
     0
 10
-18.811886912725839
 20
4.4451928350922021
 30
0.0
 11
-18.811886912725839
 21
4.4451928350922021
 31
0.0
  0
LINE
  5
53D3F
  8
0
 62
     0
 10
-18.878178173462079
 20
4.3789015743559627
 30
0.0
 11
-18.878178173462079
 21
4.3789015743559627
 31
0.0
  0
LINE
  5
53D40
  8
0
 62
     0
 10
-18.944469434198322
 20
4.3126103136197251
 30
0.0
 11
-18.944469434198322
 21
4.3126103136197251
 31
0.0
  0
LINE
  5
53D41
  8
0
 62
     0
 10
-19.010760694934561
 20
4.2463190528834858
 30
0.0
 11
-19.010760694934561
 21
4.2463190528834858
 31
0.0
  0
LINE
  5
53D42
  8
0
 62
     0
 10
-19.0770519556708
 20
4.1800277921472482
 30
0.0
 11
-19.0770519556708
 21
4.1800277921472482
 31
0.0
  0
LINE
  5
53D43
  8
0
 62
     0
 10
-19.143343216407029
 20
4.1137365314110088
 30
0.0
 11
-19.143343216407029
 21
4.1137365314110088
 31
0.0
  0
LINE
  5
53D44
  8
0
 62
     0
 10
-16.856294721006801
 20
6.5333675482837279
 30
0.0
 11
-16.856294721006801
 21
6.5333675482837279
 31
0.0
  0
LINE
  5
53D45
  8
0
 62
     0
 10
-16.922585981743008
 20
6.4670762875474797
 30
0.0
 11
-16.922585981743008
 21
6.4670762875474797
 31
0.0
  0
LINE
  5
53D46
  8
0
 62
     0
 10
-16.988877242479251
 20
6.4007850268112421
 30
0.0
 11
-16.988877242479251
 21
6.4007850268112421
 31
0.0
  0
LINE
  5
53D47
  8
0
 62
     0
 10
-17.055168503215491
 20
6.3344937660750027
 30
0.0
 11
-17.055168503215491
 21
6.3344937660750027
 31
0.0
  0
LINE
  5
53D48
  8
0
 62
     0
 10
-17.12145976395173
 20
6.2682025053387651
 30
0.0
 11
-17.12145976395173
 21
6.2682025053387651
 31
0.0
  0
LINE
  5
53D49
  8
0
 62
     0
 10
-17.187751024687969
 20
6.2019112446025257
 30
0.0
 11
-17.187751024687969
 21
6.2019112446025257
 31
0.0
  0
LINE
  5
53D4A
  8
0
 62
     0
 10
-17.254042285424209
 20
6.1356199838662882
 30
0.0
 11
-17.254042285424209
 21
6.1356199838662882
 31
0.0
  0
LINE
  5
53D4B
  8
0
 62
     0
 10
-17.320333546160452
 20
6.0693287231300488
 30
0.0
 11
-17.320333546160452
 21
6.0693287231300488
 31
0.0
  0
LINE
  5
53D4C
  8
0
 62
     0
 10
-17.386624806896691
 20
6.0030374623938112
 30
0.0
 11
-17.386624806896691
 21
6.0030374623938112
 31
0.0
  0
LINE
  5
53D4D
  8
0
 62
     0
 10
-17.45291606763293
 20
5.9367462016575718
 30
0.0
 11
-17.45291606763293
 21
5.9367462016575718
 31
0.0
  0
LINE
  5
53D4E
  8
0
 62
     0
 10
-17.51920732836917
 20
5.8704549409213342
 30
0.0
 11
-17.51920732836917
 21
5.8704549409213342
 31
0.0
  0
LINE
  5
53D4F
  8
0
 62
     0
 10
-17.585498589105409
 20
5.8041636801850949
 30
0.0
 11
-17.585498589105409
 21
5.8041636801850949
 31
0.0
  0
LINE
  5
53D50
  8
0
 62
     0
 10
-17.651789849841649
 20
5.7378724194488573
 30
0.0
 11
-17.651789849841649
 21
5.7378724194488573
 31
0.0
  0
LINE
  5
53D51
  8
0
 62
     0
 10
-17.718081110577881
 20
5.6715811587126179
 30
0.0
 11
-17.718081110577881
 21
5.6715811587126179
 31
0.0
  0
LINE
  5
53D52
  8
0
 62
     0
 10
-17.78437237131412
 20
5.6052898979763803
 30
0.0
 11
-17.78437237131412
 21
5.6052898979763803
 31
0.0
  0
LINE
  5
53D53
  8
0
 62
     0
 10
-17.85066363205037
 20
5.538998637240141
 30
0.0
 11
-17.85066363205037
 21
5.538998637240141
 31
0.0
  0
LINE
  5
53D54
  8
0
 62
     0
 10
-17.916954892786599
 20
5.4727073765039034
 30
0.0
 11
-17.916954892786599
 21
5.4727073765039034
 31
0.0
  0
LINE
  5
53D55
  8
0
 62
     0
 10
-17.983246153522838
 20
5.406416115767664
 30
0.0
 11
-17.983246153522838
 21
5.406416115767664
 31
0.0
  0
LINE
  5
53D56
  8
0
 62
     0
 10
-18.049537414259081
 20
5.3401248550314264
 30
0.0
 11
-18.049537414259081
 21
5.3401248550314264
 31
0.0
  0
LINE
  5
53D57
  8
0
 62
     0
 10
-18.115828674995321
 20
5.2738335942951871
 30
0.0
 11
-18.115828674995321
 21
5.2738335942951871
 31
0.0
  0
LINE
  5
53D58
  8
0
 62
     0
 10
-18.18211993573156
 20
5.2075423335589486
 30
0.0
 11
-18.18211993573156
 21
5.2075423335589486
 31
0.0
  0
LINE
  5
53D59
  8
0
 62
     0
 10
-18.248411196467799
 20
5.1412510728227101
 30
0.0
 11
-18.248411196467799
 21
5.1412510728227101
 31
0.0
  0
LINE
  5
53D5A
  8
0
 62
     0
 10
-18.314702457204039
 20
5.0749598120864716
 30
0.0
 11
-18.314702457204039
 21
5.0749598120864716
 31
0.0
  0
LINE
  5
53D5B
  8
0
 62
     0
 10
-18.380993717940282
 20
5.008668551350234
 30
0.0
 11
-18.380993717940282
 21
5.008668551350234
 31
0.0
  0
LINE
  5
53D5C
  8
0
 62
     0
 10
-18.447284978676521
 20
4.9423772906139947
 30
0.0
 11
-18.447284978676521
 21
4.9423772906139947
 31
0.0
  0
LINE
  5
53D5D
  8
0
 62
     0
 10
-18.51357623941276
 20
4.8760860298777571
 30
0.0
 11
-18.51357623941276
 21
4.8760860298777571
 31
0.0
  0
LINE
  5
53D5E
  8
0
 62
     0
 10
-18.579867500149
 20
4.8097947691415177
 30
0.0
 11
-18.579867500149
 21
4.8097947691415177
 31
0.0
  0
LINE
  5
53D5F
  8
0
 62
     0
 10
-18.646158760885239
 20
4.7435035084052801
 30
0.0
 11
-18.646158760885239
 21
4.7435035084052801
 31
0.0
  0
LINE
  5
53D60
  8
0
 62
     0
 10
-18.712450021621478
 20
4.6772122476690408
 30
0.0
 11
-18.712450021621478
 21
4.6772122476690408
 31
0.0
  0
LINE
  5
53D61
  8
0
 62
     0
 10
-18.778741282357721
 20
4.6109209869328032
 30
0.0
 11
-18.778741282357721
 21
4.6109209869328032
 31
0.0
  0
LINE
  5
53D62
  8
0
 62
     0
 10
-16.325964635116879
 20
7.0636976341736339
 30
0.0
 11
-16.325964635116879
 21
7.0636976341736339
 31
0.0
  0
LINE
  5
53D63
  8
0
 62
     0
 10
-16.392255895853118
 20
6.9974063734373964
 30
0.0
 11
-16.392255895853118
 21
6.9974063734373964
 31
0.0
  0
LINE
  5
53D64
  8
0
 62
     0
 10
-16.458547156589361
 20
6.931115112701157
 30
0.0
 11
-16.458547156589361
 21
6.931115112701157
 31
0.0
  0
LINE
  5
53D65
  8
0
 62
     0
 10
-16.524838417325601
 20
6.8648238519649194
 30
0.0
 11
-16.524838417325601
 21
6.8648238519649194
 31
0.0
  0
LINE
  5
53D66
  8
0
 62
     0
 10
-16.59112967806184
 20
6.79853259122868
 30
0.0
 11
-16.59112967806184
 21
6.79853259122868
 31
0.0
  0
LINE
  5
53D67
  8
0
 62
     0
 10
-16.657420938798079
 20
6.7322413304924424
 30
0.0
 11
-16.657420938798079
 21
6.7322413304924424
 31
0.0
  0
LINE
  5
53D68
  8
0
 62
     0
 10
-16.723712199534319
 20
6.6659500697562031
 30
0.0
 11
-16.723712199534319
 21
6.6659500697562031
 31
0.0
  0
LINE
  5
53D69
  8
0
 62
     0
 10
-18.845032543093961
 20
4.5446297261965611
 30
0.0
 11
-18.845032543093961
 21
4.5446297261965611
 31
0.0
  0
LINE
  5
53D6A
  8
0
 62
     0
 10
-18.9113238038302
 20
4.4783384654603218
 30
0.0
 11
-18.9113238038302
 21
4.4783384654603218
 31
0.0
  0
LINE
  5
53D6B
  8
0
 62
     0
 10
-18.977615064566429
 20
4.4120472047240842
 30
0.0
 11
-18.977615064566429
 21
4.4120472047240842
 31
0.0
  0
LINE
  5
53D6C
  8
0
 62
     0
 10
-19.043906325302672
 20
4.3457559439878448
 30
0.0
 11
-19.043906325302672
 21
4.3457559439878448
 31
0.0
  0
LINE
  5
53D6D
  8
0
 62
     0
 10
-19.110197586038911
 20
4.2794646832516072
 30
0.0
 11
-19.110197586038911
 21
4.2794646832516072
 31
0.0
  0
LINE
  5
53D6E
  8
0
 62
     0
 10
-19.17648884677515
 20
4.2131734225153679
 30
0.0
 11
-19.17648884677515
 21
4.2131734225153679
 31
0.0
  0
LINE
  5
53D6F
  8
0
 62
     0
 10
-19.24278010751139
 20
4.1468821617791303
 30
0.0
 11
-19.24278010751139
 21
4.1468821617791303
 31
0.0
  0
LINE
  5
53D70
  8
0
 62
     0
 10
-16.955731612111151
 20
6.5665131786518449
 30
0.0
 11
-16.955731612111151
 21
6.5665131786518449
 31
0.0
  0
LINE
  5
53D71
  8
0
 62
     0
 10
-17.022022872847369
 20
6.5002219179155967
 30
0.0
 11
-17.022022872847369
 21
6.5002219179155967
 31
0.0
  0
LINE
  5
53D72
  8
0
 62
     0
 10
-17.088314133583609
 20
6.4339306571793591
 30
0.0
 11
-17.088314133583609
 21
6.4339306571793591
 31
0.0
  0
LINE
  5
53D73
  8
0
 62
     0
 10
-17.154605394319852
 20
6.3676393964431197
 30
0.0
 11
-17.154605394319852
 21
6.3676393964431197
 31
0.0
  0
LINE
  5
53D74
  8
0
 62
     0
 10
-17.220896655056091
 20
6.3013481357068821
 30
0.0
 11
-17.220896655056091
 21
6.3013481357068821
 31
0.0
  0
LINE
  5
53D75
  8
0
 62
     0
 10
-17.28718791579233
 20
6.2350568749706428
 30
0.0
 11
-17.28718791579233
 21
6.2350568749706428
 31
0.0
  0
LINE
  5
53D76
  8
0
 62
     0
 10
-17.35347917652857
 20
6.1687656142344052
 30
0.0
 11
-17.35347917652857
 21
6.1687656142344052
 31
0.0
  0
LINE
  5
53D77
  8
0
 62
     0
 10
-17.419770437264809
 20
6.1024743534981658
 30
0.0
 11
-17.419770437264809
 21
6.1024743534981658
 31
0.0
  0
LINE
  5
53D78
  8
0
 62
     0
 10
-17.486061698001048
 20
6.0361830927619282
 30
0.0
 11
-17.486061698001048
 21
6.0361830927619282
 31
0.0
  0
LINE
  5
53D79
  8
0
 62
     0
 10
-17.552352958737291
 20
5.9698918320256888
 30
0.0
 11
-17.552352958737291
 21
5.9698918320256888
 31
0.0
  0
LINE
  5
53D7A
  8
0
 62
     0
 10
-17.618644219473531
 20
5.9036005712894513
 30
0.0
 11
-17.618644219473531
 21
5.9036005712894513
 31
0.0
  0
LINE
  5
53D7B
  8
0
 62
     0
 10
-17.68493548020977
 20
5.8373093105532119
 30
0.0
 11
-17.68493548020977
 21
5.8373093105532119
 31
0.0
  0
LINE
  5
53D7C
  8
0
 62
     0
 10
-17.751226740946009
 20
5.7710180498169743
 30
0.0
 11
-17.751226740946009
 21
5.7710180498169743
 31
0.0
  0
LINE
  5
53D7D
  8
0
 62
     0
 10
-17.817518001682249
 20
5.7047267890807349
 30
0.0
 11
-17.817518001682249
 21
5.7047267890807349
 31
0.0
  0
LINE
  5
53D7E
  8
0
 62
     0
 10
-17.883809262418492
 20
5.6384355283444973
 30
0.0
 11
-17.883809262418492
 21
5.6384355283444973
 31
0.0
  0
LINE
  5
53D7F
  8
0
 62
     0
 10
-17.950100523154731
 20
5.572144267608258
 30
0.0
 11
-17.950100523154731
 21
5.572144267608258
 31
0.0
  0
LINE
  5
53D80
  8
0
 62
     0
 10
-18.01639178389097
 20
5.5058530068720204
 30
0.0
 11
-18.01639178389097
 21
5.5058530068720204
 31
0.0
  0
LINE
  5
53D81
  8
0
 62
     0
 10
-18.082683044627199
 20
5.439561746135781
 30
0.0
 11
-18.082683044627199
 21
5.439561746135781
 31
0.0
  0
LINE
  5
53D82
  8
0
 62
     0
 10
-18.148974305363438
 20
5.3732704853995434
 30
0.0
 11
-18.148974305363438
 21
5.3732704853995434
 31
0.0
  0
LINE
  5
53D83
  8
0
 62
     0
 10
-18.215265566099681
 20
5.3069792246633041
 30
0.0
 11
-18.215265566099681
 21
5.3069792246633041
 31
0.0
  0
LINE
  5
53D84
  8
0
 62
     0
 10
-18.281556826835921
 20
5.2406879639270656
 30
0.0
 11
-18.281556826835921
 21
5.2406879639270656
 31
0.0
  0
LINE
  5
53D85
  8
0
 62
     0
 10
-18.34784808757216
 20
5.174396703190828
 30
0.0
 11
-18.34784808757216
 21
5.174396703190828
 31
0.0
  0
LINE
  5
53D86
  8
0
 62
     0
 10
-18.414139348308399
 20
5.1081054424545886
 30
0.0
 11
-18.414139348308399
 21
5.1081054424545886
 31
0.0
  0
LINE
  5
53D87
  8
0
 62
     0
 10
-18.480430609044639
 20
5.0418141817183511
 30
0.0
 11
-18.480430609044639
 21
5.0418141817183511
 31
0.0
  0
LINE
  5
53D88
  8
0
 62
     0
 10
-18.546721869780882
 20
4.9755229209821117
 30
0.0
 11
-18.546721869780882
 21
4.9755229209821117
 31
0.0
  0
LINE
  5
53D89
  8
0
 62
     0
 10
-18.613013130517121
 20
4.9092316602458741
 30
0.0
 11
-18.613013130517121
 21
4.9092316602458741
 31
0.0
  0
LINE
  5
53D8A
  8
0
 62
     0
 10
-18.679304391253361
 20
4.8429403995096347
 30
0.0
 11
-18.679304391253361
 21
4.8429403995096347
 31
0.0
  0
LINE
  5
53D8B
  8
0
 62
     0
 10
-18.7455956519896
 20
4.7766491387733971
 30
0.0
 11
-18.7455956519896
 21
4.7766491387733971
 31
0.0
  0
LINE
  5
53D8C
  8
0
 62
     0
 10
-18.811886912725839
 20
4.7103578780371578
 30
0.0
 11
-18.811886912725839
 21
4.7103578780371578
 31
0.0
  0
LINE
  5
53D8D
  8
0
 62
     0
 10
-18.878178173462079
 20
4.6440666173009202
 30
0.0
 11
-18.878178173462079
 21
4.6440666173009202
 31
0.0
  0
LINE
  5
53D8E
  8
0
 62
     0
 10
-16.359110265485
 20
7.1631345252779912
 30
0.0
 11
-16.359110265485
 21
7.1631345252779912
 31
0.0
  0
LINE
  5
53D8F
  8
0
 62
     0
 10
-16.42540152622124
 20
7.0968432645417519
 30
0.0
 11
-16.42540152622124
 21
7.0968432645417519
 31
0.0
  0
LINE
  5
53D90
  8
0
 62
     0
 10
-16.491692786957479
 20
7.0305520038055143
 30
0.0
 11
-16.491692786957479
 21
7.0305520038055143
 31
0.0
  0
LINE
  5
53D91
  8
0
 62
     0
 10
-16.557984047693719
 20
6.9642607430692749
 30
0.0
 11
-16.557984047693719
 21
6.9642607430692749
 31
0.0
  0
LINE
  5
53D92
  8
0
 62
     0
 10
-16.624275308429961
 20
6.8979694823330373
 30
0.0
 11
-16.624275308429961
 21
6.8979694823330373
 31
0.0
  0
LINE
  5
53D93
  8
0
 62
     0
 10
-16.690566569166201
 20
6.8316782215967979
 30
0.0
 11
-16.690566569166201
 21
6.8316782215967979
 31
0.0
  0
LINE
  5
53D94
  8
0
 62
     0
 10
-16.75685782990244
 20
6.7653869608605604
 30
0.0
 11
-16.75685782990244
 21
6.7653869608605604
 31
0.0
  0
LINE
  5
53D95
  8
0
 62
     0
 10
-16.823149090638669
 20
6.699095700124321
 30
0.0
 11
-16.823149090638669
 21
6.699095700124321
 31
0.0
  0
LINE
  5
53D96
  8
0
 62
     0
 10
-18.944469434198322
 20
4.577775356564679
 30
0.0
 11
-18.944469434198322
 21
4.577775356564679
 31
0.0
  0
LINE
  5
53D97
  8
0
 62
     0
 10
-19.010760694934561
 20
4.5114840958284397
 30
0.0
 11
-19.010760694934561
 21
4.5114840958284397
 31
0.0
  0
LINE
  5
53D98
  8
0
 62
     0
 10
-19.0770519556708
 20
4.4451928350922021
 30
0.0
 11
-19.0770519556708
 21
4.4451928350922021
 31
0.0
  0
LINE
  5
53D99
  8
0
 62
     0
 10
-19.143343216407029
 20
4.3789015743559627
 30
0.0
 11
-19.143343216407029
 21
4.3789015743559627
 31
0.0
  0
LINE
  5
53D9A
  8
0
 62
     0
 10
-19.209634477143268
 20
4.3126103136197251
 30
0.0
 11
-19.209634477143268
 21
4.3126103136197251
 31
0.0
  0
LINE
  5
53D9B
  8
0
 62
     0
 10
-19.275925737879511
 20
4.2463190528834858
 30
0.0
 11
-19.275925737879511
 21
4.2463190528834858
 31
0.0
  0
LINE
  5
53D9C
  8
0
 62
     0
 10
-19.342216998615751
 20
4.1800277921472482
 30
0.0
 11
-19.342216998615751
 21
4.1800277921472482
 31
0.0
  0
LINE
  5
53D9D
  8
0
 62
     0
 10
-17.055168503215508
 20
6.5996588090199637
 30
0.0
 11
-17.055168503215508
 21
6.5996588090199637
 31
0.0
  0
LINE
  5
53D9E
  8
0
 62
     0
 10
-17.121459763951741
 20
6.5333675482837172
 30
0.0
 11
-17.121459763951741
 21
6.5333675482837172
 31
0.0
  0
LINE
  5
53D9F
  8
0
 62
     0
 10
-17.18775102468798
 20
6.4670762875474779
 30
0.0
 11
-17.18775102468798
 21
6.4670762875474779
 31
0.0
  0
LINE
  5
53DA0
  8
0
 62
     0
 10
-17.254042285424209
 20
6.4007850268112403
 30
0.0
 11
-17.254042285424209
 21
6.4007850268112403
 31
0.0
  0
LINE
  5
53DA1
  8
0
 62
     0
 10
-17.320333546160452
 20
6.3344937660750009
 30
0.0
 11
-17.320333546160452
 21
6.3344937660750009
 31
0.0
  0
LINE
  5
53DA2
  8
0
 62
     0
 10
-17.386624806896691
 20
6.2682025053387633
 30
0.0
 11
-17.386624806896691
 21
6.2682025053387633
 31
0.0
  0
LINE
  5
53DA3
  8
0
 62
     0
 10
-17.45291606763293
 20
6.201911244602524
 30
0.0
 11
-17.45291606763293
 21
6.201911244602524
 31
0.0
  0
LINE
  5
53DA4
  8
0
 62
     0
 10
-17.51920732836917
 20
6.1356199838662864
 30
0.0
 11
-17.51920732836917
 21
6.1356199838662864
 31
0.0
  0
LINE
  5
53DA5
  8
0
 62
     0
 10
-17.585498589105409
 20
6.069328723130047
 30
0.0
 11
-17.585498589105409
 21
6.069328723130047
 31
0.0
  0
LINE
  5
53DA6
  8
0
 62
     0
 10
-17.651789849841649
 20
6.0030374623938094
 30
0.0
 11
-17.651789849841649
 21
6.0030374623938094
 31
0.0
  0
LINE
  5
53DA7
  8
0
 62
     0
 10
-17.718081110577891
 20
5.9367462016575701
 30
0.0
 11
-17.718081110577891
 21
5.9367462016575701
 31
0.0
  0
LINE
  5
53DA8
  8
0
 62
     0
 10
-17.784372371314131
 20
5.8704549409213316
 30
0.0
 11
-17.784372371314131
 21
5.8704549409213316
 31
0.0
  0
LINE
  5
53DA9
  8
0
 62
     0
 10
-17.85066363205037
 20
5.8041636801850931
 30
0.0
 11
-17.85066363205037
 21
5.8041636801850931
 31
0.0
  0
LINE
  5
53DAA
  8
0
 62
     0
 10
-17.91695489278661
 20
5.7378724194488546
 30
0.0
 11
-17.91695489278661
 21
5.7378724194488546
 31
0.0
  0
LINE
  5
53DAB
  8
0
 62
     0
 10
-17.983246153522849
 20
5.671581158712617
 30
0.0
 11
-17.983246153522849
 21
5.671581158712617
 31
0.0
  0
LINE
  5
53DAC
  8
0
 62
     0
 10
-18.049537414259088
 20
5.6052898979763777
 30
0.0
 11
-18.049537414259088
 21
5.6052898979763777
 31
0.0
  0
LINE
  5
53DAD
  8
0
 62
     0
 10
-18.115828674995331
 20
5.5389986372401401
 30
0.0
 11
-18.115828674995331
 21
5.5389986372401401
 31
0.0
  0
LINE
  5
53DAE
  8
0
 62
     0
 10
-18.182119935731571
 20
5.4727073765039007
 30
0.0
 11
-18.182119935731571
 21
5.4727073765039007
 31
0.0
  0
LINE
  5
53DAF
  8
0
 62
     0
 10
-18.248411196467799
 20
5.4064161157676631
 30
0.0
 11
-18.248411196467799
 21
5.4064161157676631
 31
0.0
  0
LINE
  5
53DB0
  8
0
 62
     0
 10
-18.314702457204039
 20
5.3401248550314238
 30
0.0
 11
-18.314702457204039
 21
5.3401248550314238
 31
0.0
  0
LINE
  5
53DB1
  8
0
 62
     0
 10
-18.380993717940282
 20
5.2738335942951862
 30
0.0
 11
-18.380993717940282
 21
5.2738335942951862
 31
0.0
  0
LINE
  5
53DB2
  8
0
 62
     0
 10
-18.447284978676521
 20
5.2075423335589468
 30
0.0
 11
-18.447284978676521
 21
5.2075423335589468
 31
0.0
  0
LINE
  5
53DB3
  8
0
 62
     0
 10
-18.51357623941276
 20
5.1412510728227092
 30
0.0
 11
-18.51357623941276
 21
5.1412510728227092
 31
0.0
  0
LINE
  5
53DB4
  8
0
 62
     0
 10
-18.579867500149
 20
5.0749598120864698
 30
0.0
 11
-18.579867500149
 21
5.0749598120864698
 31
0.0
  0
LINE
  5
53DB5
  8
0
 62
     0
 10
-18.646158760885239
 20
5.0086685513502323
 30
0.0
 11
-18.646158760885239
 21
5.0086685513502323
 31
0.0
  0
LINE
  5
53DB6
  8
0
 62
     0
 10
-18.712450021621478
 20
4.9423772906139929
 30
0.0
 11
-18.712450021621478
 21
4.9423772906139929
 31
0.0
  0
LINE
  5
53DB7
  8
0
 62
     0
 10
-18.778741282357721
 20
4.8760860298777553
 30
0.0
 11
-18.778741282357721
 21
4.8760860298777553
 31
0.0
  0
LINE
  5
53DB8
  8
0
 62
     0
 10
-18.845032543093961
 20
4.8097947691415159
 30
0.0
 11
-18.845032543093961
 21
4.8097947691415159
 31
0.0
  0
LINE
  5
53DB9
  8
0
 62
     0
 10
-18.9113238038302
 20
4.7435035084052783
 30
0.0
 11
-18.9113238038302
 21
4.7435035084052783
 31
0.0
  0
LINE
  5
53DBA
  8
0
 62
     0
 10
-16.458547156589361
 20
7.1962801556461118
 30
0.0
 11
-16.458547156589361
 21
7.1962801556461118
 31
0.0
  0
LINE
  5
53DBB
  8
0
 62
     0
 10
-16.524838417325601
 20
7.1299888949098742
 30
0.0
 11
-16.524838417325601
 21
7.1299888949098742
 31
0.0
  0
LINE
  5
53DBC
  8
0
 62
     0
 10
-16.59112967806184
 20
7.0636976341736348
 30
0.0
 11
-16.59112967806184
 21
7.0636976341736348
 31
0.0
  0
LINE
  5
53DBD
  8
0
 62
     0
 10
-16.657420938798079
 20
6.9974063734373972
 30
0.0
 11
-16.657420938798079
 21
6.9974063734373972
 31
0.0
  0
LINE
  5
53DBE
  8
0
 62
     0
 10
-16.723712199534319
 20
6.9311151127011579
 30
0.0
 11
-16.723712199534319
 21
6.9311151127011579
 31
0.0
  0
LINE
  5
53DBF
  8
0
 62
     0
 10
-16.790003460270562
 20
6.8648238519649203
 30
0.0
 11
-16.790003460270562
 21
6.8648238519649203
 31
0.0
  0
LINE
  5
53DC0
  8
0
 62
     0
 10
-16.856294721006801
 20
6.7985325912286809
 30
0.0
 11
-16.856294721006801
 21
6.7985325912286809
 31
0.0
  0
LINE
  5
53DC1
  8
0
 62
     0
 10
-18.977615064566429
 20
4.6772122476690372
 30
0.0
 11
-18.977615064566429
 21
4.6772122476690372
 31
0.0
  0
LINE
  5
53DC2
  8
0
 62
     0
 10
-19.043906325302672
 20
4.6109209869327978
 30
0.0
 11
-19.043906325302672
 21
4.6109209869327978
 31
0.0
  0
LINE
  5
53DC3
  8
0
 62
     0
 10
-19.110197586038911
 20
4.5446297261965602
 30
0.0
 11
-19.110197586038911
 21
4.5446297261965602
 31
0.0
  0
LINE
  5
53DC4
  8
0
 62
     0
 10
-19.17648884677515
 20
4.4783384654603209
 30
0.0
 11
-19.17648884677515
 21
4.4783384654603209
 31
0.0
  0
LINE
  5
53DC5
  8
0
 62
     0
 10
-19.24278010751139
 20
4.4120472047240833
 30
0.0
 11
-19.24278010751139
 21
4.4120472047240833
 31
0.0
  0
LINE
  5
53DC6
  8
0
 62
     0
 10
-19.309071368247629
 20
4.3457559439878439
 30
0.0
 11
-19.309071368247629
 21
4.3457559439878439
 31
0.0
  0
LINE
  5
53DC7
  8
0
 62
     0
 10
-19.375362628983869
 20
4.2794646832516063
 30
0.0
 11
-19.375362628983869
 21
4.2794646832516063
 31
0.0
  0
LINE
  5
53DC8
  8
0
 62
     0
 10
-19.441653889720111
 20
4.213173422515367
 30
0.0
 11
-19.441653889720111
 21
4.213173422515367
 31
0.0
  0
LINE
  5
53DC9
  8
0
 62
     0
 10
-17.08831413358363
 20
6.6990957001243201
 30
0.0
 11
-17.08831413358363
 21
6.6990957001243201
 31
0.0
  0
LINE
  5
53DCA
  8
0
 62
     0
 10
-17.154605394319869
 20
6.6328044393880807
 30
0.0
 11
-17.154605394319869
 21
6.6328044393880807
 31
0.0
  0
LINE
  5
53DCB
  8
0
 62
     0
 10
-17.220896655056102
 20
6.5665131786518316
 30
0.0
 11
-17.220896655056102
 21
6.5665131786518316
 31
0.0
  0
LINE
  5
53DCC
  8
0
 62
     0
 10
-17.287187915792341
 20
6.500221917915594
 30
0.0
 11
-17.287187915792341
 21
6.500221917915594
 31
0.0
  0
LINE
  5
53DCD
  8
0
 62
     0
 10
-17.35347917652857
 20
6.4339306571793546
 30
0.0
 11
-17.35347917652857
 21
6.4339306571793546
 31
0.0
  0
LINE
  5
53DCE
  8
0
 62
     0
 10
-17.419770437264809
 20
6.3676393964431171
 30
0.0
 11
-17.419770437264809
 21
6.3676393964431171
 31
0.0
  0
LINE
  5
53DCF
  8
0
 62
     0
 10
-17.486061698001048
 20
6.3013481357068777
 30
0.0
 11
-17.486061698001048
 21
6.3013481357068777
 31
0.0
  0
LINE
  5
53DD0
  8
0
 62
     0
 10
-17.552352958737291
 20
6.2350568749706401
 30
0.0
 11
-17.552352958737291
 21
6.2350568749706401
 31
0.0
  0
LINE
  5
53DD1
  8
0
 62
     0
 10
-17.618644219473531
 20
6.1687656142344007
 30
0.0
 11
-17.618644219473531
 21
6.1687656142344007
 31
0.0
  0
LINE
  5
53DD2
  8
0
 62
     0
 10
-17.68493548020977
 20
6.1024743534981631
 30
0.0
 11
-17.68493548020977
 21
6.1024743534981631
 31
0.0
  0
LINE
  5
53DD3
  8
0
 62
     0
 10
-17.751226740946009
 20
6.0361830927619238
 30
0.0
 11
-17.751226740946009
 21
6.0361830927619238
 31
0.0
  0
LINE
  5
53DD4
  8
0
 62
     0
 10
-17.817518001682249
 20
5.9698918320256862
 30
0.0
 11
-17.817518001682249
 21
5.9698918320256862
 31
0.0
  0
LINE
  5
53DD5
  8
0
 62
     0
 10
-17.883809262418492
 20
5.9036005712894468
 30
0.0
 11
-17.883809262418492
 21
5.9036005712894468
 31
0.0
  0
LINE
  5
53DD6
  8
0
 62
     0
 10
-17.950100523154731
 20
5.8373093105532092
 30
0.0
 11
-17.950100523154731
 21
5.8373093105532092
 31
0.0
  0
LINE
  5
53DD7
  8
0
 62
     0
 10
-18.01639178389097
 20
5.7710180498169699
 30
0.0
 11
-18.01639178389097
 21
5.7710180498169699
 31
0.0
  0
LINE
  5
53DD8
  8
0
 62
     0
 10
-18.08268304462721
 20
5.7047267890807323
 30
0.0
 11
-18.08268304462721
 21
5.7047267890807323
 31
0.0
  0
LINE
  5
53DD9
  8
0
 62
     0
 10
-18.148974305363449
 20
5.6384355283444929
 30
0.0
 11
-18.148974305363449
 21
5.6384355283444929
 31
0.0
  0
LINE
  5
53DDA
  8
0
 62
     0
 10
-18.215265566099688
 20
5.5721442676082553
 30
0.0
 11
-18.215265566099688
 21
5.5721442676082553
 31
0.0
  0
LINE
  5
53DDB
  8
0
 62
     0
 10
-18.281556826835931
 20
5.505853006872016
 30
0.0
 11
-18.281556826835931
 21
5.505853006872016
 31
0.0
  0
LINE
  5
53DDC
  8
0
 62
     0
 10
-18.34784808757216
 20
5.4395617461357784
 30
0.0
 11
-18.34784808757216
 21
5.4395617461357784
 31
0.0
  0
LINE
  5
53DDD
  8
0
 62
     0
 10
-18.41413934830841
 20
5.373270485399539
 30
0.0
 11
-18.41413934830841
 21
5.373270485399539
 31
0.0
  0
LINE
  5
53DDE
  8
0
 62
     0
 10
-18.480430609044639
 20
5.3069792246633014
 30
0.0
 11
-18.480430609044639
 21
5.3069792246633014
 31
0.0
  0
LINE
  5
53DDF
  8
0
 62
     0
 10
-18.546721869780882
 20
5.240687963927062
 30
0.0
 11
-18.546721869780882
 21
5.240687963927062
 31
0.0
  0
LINE
  5
53DE0
  8
0
 62
     0
 10
-18.613013130517121
 20
5.1743967031908236
 30
0.0
 11
-18.613013130517121
 21
5.1743967031908236
 31
0.0
  0
LINE
  5
53DE1
  8
0
 62
     0
 10
-18.679304391253361
 20
5.1081054424545851
 30
0.0
 11
-18.679304391253361
 21
5.1081054424545851
 31
0.0
  0
LINE
  5
53DE2
  8
0
 62
     0
 10
-18.7455956519896
 20
5.0418141817183466
 30
0.0
 11
-18.7455956519896
 21
5.0418141817183466
 31
0.0
  0
LINE
  5
53DE3
  8
0
 62
     0
 10
-18.811886912725839
 20
4.975522920982109
 30
0.0
 11
-18.811886912725839
 21
4.975522920982109
 31
0.0
  0
LINE
  5
53DE4
  8
0
 62
     0
 10
-18.878178173462079
 20
4.9092316602458697
 30
0.0
 11
-18.878178173462079
 21
4.9092316602458697
 31
0.0
  0
LINE
  5
53DE5
  8
0
 62
     0
 10
-18.944469434198322
 20
4.8429403995096321
 30
0.0
 11
-18.944469434198322
 21
4.8429403995096321
 31
0.0
  0
LINE
  5
53DE6
  8
0
 62
     0
 10
-19.010760694934561
 20
4.7766491387733927
 30
0.0
 11
-19.010760694934561
 21
4.7766491387733927
 31
0.0
  0
LINE
  5
53DE7
  8
0
 62
     0
 10
-16.557984047693719
 20
7.2294257860142297
 30
0.0
 11
-16.557984047693719
 21
7.2294257860142297
 31
0.0
  0
LINE
  5
53DE8
  8
0
 62
     0
 10
-16.624275308429961
 20
7.1631345252779921
 30
0.0
 11
-16.624275308429961
 21
7.1631345252779921
 31
0.0
  0
LINE
  5
53DE9
  8
0
 62
     0
 10
-16.690566569166201
 20
7.0968432645417527
 30
0.0
 11
-16.690566569166201
 21
7.0968432645417527
 31
0.0
  0
LINE
  5
53DEA
  8
0
 62
     0
 10
-16.75685782990244
 20
7.0305520038055151
 30
0.0
 11
-16.75685782990244
 21
7.0305520038055151
 31
0.0
  0
LINE
  5
53DEB
  8
0
 62
     0
 10
-16.823149090638669
 20
6.9642607430692758
 30
0.0
 11
-16.823149090638669
 21
6.9642607430692758
 31
0.0
  0
LINE
  5
53DEC
  8
0
 62
     0
 10
-16.889440351374908
 20
6.8979694823330382
 30
0.0
 11
-16.889440351374908
 21
6.8979694823330382
 31
0.0
  0
LINE
  5
53DED
  8
0
 62
     0
 10
-16.955731612111151
 20
6.8316782215967988
 30
0.0
 11
-16.955731612111151
 21
6.8316782215967988
 31
0.0
  0
LINE
  5
53DEE
  8
0
 62
     0
 10
-19.0770519556708
 20
4.7103578780371551
 30
0.0
 11
-19.0770519556708
 21
4.7103578780371551
 31
0.0
  0
LINE
  5
53DEF
  8
0
 62
     0
 10
-19.143343216407029
 20
4.6440666173009166
 30
0.0
 11
-19.143343216407029
 21
4.6440666173009166
 31
0.0
  0
LINE
  5
53DF0
  8
0
 62
     0
 10
-19.209634477143268
 20
4.577775356564679
 30
0.0
 11
-19.209634477143268
 21
4.577775356564679
 31
0.0
  0
LINE
  5
53DF1
  8
0
 62
     0
 10
-19.275925737879511
 20
4.5114840958284397
 30
0.0
 11
-19.275925737879511
 21
4.5114840958284397
 31
0.0
  0
LINE
  5
53DF2
  8
0
 62
     0
 10
-19.342216998615751
 20
4.4451928350922021
 30
0.0
 11
-19.342216998615751
 21
4.4451928350922021
 31
0.0
  0
LINE
  5
53DF3
  8
0
 62
     0
 10
-19.40850825935199
 20
4.3789015743559627
 30
0.0
 11
-19.40850825935199
 21
4.3789015743559627
 31
0.0
  0
LINE
  5
53DF4
  8
0
 62
     0
 10
-19.474799520088229
 20
4.3126103136197251
 30
0.0
 11
-19.474799520088229
 21
4.3126103136197251
 31
0.0
  0
LINE
  5
53DF5
  8
0
 62
     0
 10
-17.187751024687991
 20
6.7322413304924424
 30
0.0
 11
-17.187751024687991
 21
6.7322413304924424
 31
0.0
  0
LINE
  5
53DF6
  8
0
 62
     0
 10
-17.254042285424209
 20
6.6659500697561924
 30
0.0
 11
-17.254042285424209
 21
6.6659500697561924
 31
0.0
  0
LINE
  5
53DF7
  8
0
 62
     0
 10
-17.320333546160452
 20
6.5996588090199531
 30
0.0
 11
-17.320333546160452
 21
6.5996588090199531
 31
0.0
  0
LINE
  5
53DF8
  8
0
 62
     0
 10
-17.386624806896691
 20
6.5333675482837146
 30
0.0
 11
-17.386624806896691
 21
6.5333675482837146
 31
0.0
  0
LINE
  5
53DF9
  8
0
 62
     0
 10
-17.45291606763293
 20
6.4670762875474761
 30
0.0
 11
-17.45291606763293
 21
6.4670762875474761
 31
0.0
  0
LINE
  5
53DFA
  8
0
 62
     0
 10
-17.51920732836917
 20
6.4007850268112376
 30
0.0
 11
-17.51920732836917
 21
6.4007850268112376
 31
0.0
  0
LINE
  5
53DFB
  8
0
 62
     0
 10
-17.585498589105409
 20
6.334493766075
 30
0.0
 11
-17.585498589105409
 21
6.334493766075
 31
0.0
  0
LINE
  5
53DFC
  8
0
 62
     0
 10
-17.651789849841649
 20
6.2682025053387607
 30
0.0
 11
-17.651789849841649
 21
6.2682025053387607
 31
0.0
  0
LINE
  5
53DFD
  8
0
 62
     0
 10
-17.718081110577891
 20
6.2019112446025231
 30
0.0
 11
-17.718081110577891
 21
6.2019112446025231
 31
0.0
  0
LINE
  5
53DFE
  8
0
 62
     0
 10
-17.784372371314131
 20
6.1356199838662837
 30
0.0
 11
-17.784372371314131
 21
6.1356199838662837
 31
0.0
  0
LINE
  5
53DFF
  8
0
 62
     0
 10
-17.85066363205037
 20
6.0693287231300461
 30
0.0
 11
-17.85066363205037
 21
6.0693287231300461
 31
0.0
  0
LINE
  5
53E00
  8
0
 62
     0
 10
-17.91695489278661
 20
6.0030374623938068
 30
0.0
 11
-17.91695489278661
 21
6.0030374623938068
 31
0.0
  0
LINE
  5
53E01
  8
0
 62
     0
 10
-17.983246153522849
 20
5.9367462016575692
 30
0.0
 11
-17.983246153522849
 21
5.9367462016575692
 31
0.0
  0
LINE
  5
53E02
  8
0
 62
     0
 10
-18.049537414259088
 20
5.8704549409213298
 30
0.0
 11
-18.049537414259088
 21
5.8704549409213298
 31
0.0
  0
LINE
  5
53E03
  8
0
 62
     0
 10
-18.115828674995331
 20
5.8041636801850922
 30
0.0
 11
-18.115828674995331
 21
5.8041636801850922
 31
0.0
  0
LINE
  5
53E04
  8
0
 62
     0
 10
-18.182119935731571
 20
5.7378724194488528
 30
0.0
 11
-18.182119935731571
 21
5.7378724194488528
 31
0.0
  0
LINE
  5
53E05
  8
0
 62
     0
 10
-18.248411196467799
 20
5.6715811587126153
 30
0.0
 11
-18.248411196467799
 21
5.6715811587126153
 31
0.0
  0
LINE
  5
53E06
  8
0
 62
     0
 10
-18.314702457204039
 20
5.6052898979763759
 30
0.0
 11
-18.314702457204039
 21
5.6052898979763759
 31
0.0
  0
LINE
  5
53E07
  8
0
 62
     0
 10
-18.380993717940282
 20
5.5389986372401383
 30
0.0
 11
-18.380993717940282
 21
5.5389986372401383
 31
0.0
  0
LINE
  5
53E08
  8
0
 62
     0
 10
-18.447284978676521
 20
5.4727073765038989
 30
0.0
 11
-18.447284978676521
 21
5.4727073765038989
 31
0.0
  0
LINE
  5
53E09
  8
0
 62
     0
 10
-18.51357623941276
 20
5.4064161157676613
 30
0.0
 11
-18.51357623941276
 21
5.4064161157676613
 31
0.0
  0
LINE
  5
53E0A
  8
0
 62
     0
 10
-18.579867500149
 20
5.340124855031422
 30
0.0
 11
-18.579867500149
 21
5.340124855031422
 31
0.0
  0
LINE
  5
53E0B
  8
0
 62
     0
 10
-18.646158760885239
 20
5.2738335942951844
 30
0.0
 11
-18.646158760885239
 21
5.2738335942951844
 31
0.0
  0
LINE
  5
53E0C
  8
0
 62
     0
 10
-18.712450021621478
 20
5.207542333558945
 30
0.0
 11
-18.712450021621478
 21
5.207542333558945
 31
0.0
  0
LINE
  5
53E0D
  8
0
 62
     0
 10
-18.778741282357721
 20
5.1412510728227074
 30
0.0
 11
-18.778741282357721
 21
5.1412510728227074
 31
0.0
  0
LINE
  5
53E0E
  8
0
 62
     0
 10
-18.845032543093961
 20
5.0749598120864681
 30
0.0
 11
-18.845032543093961
 21
5.0749598120864681
 31
0.0
  0
LINE
  5
53E0F
  8
0
 62
     0
 10
-18.9113238038302
 20
5.0086685513502296
 30
0.0
 11
-18.9113238038302
 21
5.0086685513502296
 31
0.0
  0
LINE
  5
53E10
  8
0
 62
     0
 10
-18.977615064566439
 20
4.942377290613992
 30
0.0
 11
-18.977615064566439
 21
4.942377290613992
 31
0.0
  0
LINE
  5
53E11
  8
0
 62
     0
 10
-19.043906325302679
 20
4.8760860298777526
 30
0.0
 11
-19.043906325302679
 21
4.8760860298777526
 31
0.0
  0
LINE
  5
53E12
  8
0
 62
     0
 10
-19.110197586038922
 20
4.809794769141515
 30
0.0
 11
-19.110197586038922
 21
4.809794769141515
 31
0.0
  0
LINE
  5
53E13
  8
0
 62
     0
 10
-16.657420938798069
 20
7.262571416382352
 30
0.0
 11
-16.657420938798069
 21
7.262571416382352
 31
0.0
  0
LINE
  5
53E14
  8
0
 62
     0
 10
-16.723712199534312
 20
7.1962801556461127
 30
0.0
 11
-16.723712199534312
 21
7.1962801556461127
 31
0.0
  0
LINE
  5
53E15
  8
0
 62
     0
 10
-16.790003460270551
 20
7.1299888949098751
 30
0.0
 11
-16.790003460270551
 21
7.1299888949098751
 31
0.0
  0
LINE
  5
53E16
  8
0
 62
     0
 10
-16.85629472100679
 20
7.0636976341736357
 30
0.0
 11
-16.85629472100679
 21
7.0636976341736357
 31
0.0
  0
LINE
  5
53E17
  8
0
 62
     0
 10
-16.92258598174303
 20
6.9974063734373981
 30
0.0
 11
-16.92258598174303
 21
6.9974063734373981
 31
0.0
  0
LINE
  5
53E18
  8
0
 62
     0
 10
-16.988877242479269
 20
6.9311151127011588
 30
0.0
 11
-16.988877242479269
 21
6.9311151127011588
 31
0.0
  0
LINE
  5
53E19
  8
0
 62
     0
 10
-17.055168503215508
 20
6.8648238519649212
 30
0.0
 11
-17.055168503215508
 21
6.8648238519649212
 31
0.0
  0
LINE
  5
53E1A
  8
0
 62
     0
 10
-19.17648884677515
 20
4.7435035084052748
 30
0.0
 11
-19.17648884677515
 21
4.7435035084052748
 31
0.0
  0
LINE
  5
53E1B
  8
0
 62
     0
 10
-19.24278010751139
 20
4.6772122476690372
 30
0.0
 11
-19.24278010751139
 21
4.6772122476690372
 31
0.0
  0
LINE
  5
53E1C
  8
0
 62
     0
 10
-19.309071368247629
 20
4.6109209869327978
 30
0.0
 11
-19.309071368247629
 21
4.6109209869327978
 31
0.0
  0
LINE
  5
53E1D
  8
0
 62
     0
 10
-19.375362628983869
 20
4.5446297261965602
 30
0.0
 11
-19.375362628983869
 21
4.5446297261965602
 31
0.0
  0
LINE
  5
53E1E
  8
0
 62
     0
 10
-19.441653889720111
 20
4.4783384654603209
 30
0.0
 11
-19.441653889720111
 21
4.4783384654603209
 31
0.0
  0
LINE
  5
53E1F
  8
0
 62
     0
 10
-19.507945150456351
 20
4.4120472047240833
 30
0.0
 11
-19.507945150456351
 21
4.4120472047240833
 31
0.0
  0
LINE
  5
53E20
  8
0
 62
     0
 10
-19.57423641119259
 20
4.3457559439878439
 30
0.0
 11
-19.57423641119259
 21
4.3457559439878439
 31
0.0
  0
LINE
  5
53E21
  8
0
 62
     0
 10
-17.287187915792341
 20
6.7653869608605621
 30
0.0
 11
-17.287187915792341
 21
6.7653869608605621
 31
0.0
  0
LINE
  5
53E22
  8
0
 62
     0
 10
-17.35347917652857
 20
6.6990957001243148
 30
0.0
 11
-17.35347917652857
 21
6.6990957001243148
 31
0.0
  0
LINE
  5
53E23
  8
0
 62
     0
 10
-17.419770437264809
 20
6.6328044393880772
 30
0.0
 11
-17.419770437264809
 21
6.6328044393880772
 31
0.0
  0
LINE
  5
53E24
  8
0
 62
     0
 10
-17.486061698001048
 20
6.5665131786518378
 30
0.0
 11
-17.486061698001048
 21
6.5665131786518378
 31
0.0
  0
LINE
  5
53E25
  8
0
 62
     0
 10
-17.552352958737291
 20
6.5002219179156002
 30
0.0
 11
-17.552352958737291
 21
6.5002219179156002
 31
0.0
  0
LINE
  5
53E26
  8
0
 62
     0
 10
-17.618644219473531
 20
6.4339306571793609
 30
0.0
 11
-17.618644219473531
 21
6.4339306571793609
 31
0.0
  0
LINE
  5
53E27
  8
0
 62
     0
 10
-17.68493548020977
 20
6.3676393964431233
 30
0.0
 11
-17.68493548020977
 21
6.3676393964431233
 31
0.0
  0
LINE
  5
53E28
  8
0
 62
     0
 10
-17.751226740946009
 20
6.3013481357068839
 30
0.0
 11
-17.751226740946009
 21
6.3013481357068839
 31
0.0
  0
LINE
  5
53E29
  8
0
 62
     0
 10
-17.817518001682249
 20
6.2350568749706463
 30
0.0
 11
-17.817518001682249
 21
6.2350568749706463
 31
0.0
  0
LINE
  5
53E2A
  8
0
 62
     0
 10
-17.883809262418492
 20
6.1687656142344069
 30
0.0
 11
-17.883809262418492
 21
6.1687656142344069
 31
0.0
  0
LINE
  5
53E2B
  8
0
 62
     0
 10
-17.950100523154731
 20
6.1024743534981694
 30
0.0
 11
-17.950100523154731
 21
6.1024743534981694
 31
0.0
  0
LINE
  5
53E2C
  8
0
 62
     0
 10
-18.01639178389097
 20
6.03618309276193
 30
0.0
 11
-18.01639178389097
 21
6.03618309276193
 31
0.0
  0
LINE
  5
53E2D
  8
0
 62
     0
 10
-18.082683044627199
 20
5.9698918320256924
 30
0.0
 11
-18.082683044627199
 21
5.9698918320256924
 31
0.0
  0
LINE
  5
53E2E
  8
0
 62
     0
 10
-18.148974305363438
 20
5.903600571289453
 30
0.0
 11
-18.148974305363438
 21
5.903600571289453
 31
0.0
  0
LINE
  5
53E2F
  8
0
 62
     0
 10
-18.215265566099681
 20
5.8373093105532146
 30
0.0
 11
-18.215265566099681
 21
5.8373093105532146
 31
0.0
  0
LINE
  5
53E30
  8
0
 62
     0
 10
-18.281556826835921
 20
5.7710180498169761
 30
0.0
 11
-18.281556826835921
 21
5.7710180498169761
 31
0.0
  0
LINE
  5
53E31
  8
0
 62
     0
 10
-18.34784808757216
 20
5.7047267890807376
 30
0.0
 11
-18.34784808757216
 21
5.7047267890807376
 31
0.0
  0
LINE
  5
53E32
  8
0
 62
     0
 10
-18.414139348308399
 20
5.6384355283445
 30
0.0
 11
-18.414139348308399
 21
5.6384355283445
 31
0.0
  0
LINE
  5
53E33
  8
0
 62
     0
 10
-18.480430609044639
 20
5.5721442676082606
 30
0.0
 11
-18.480430609044639
 21
5.5721442676082606
 31
0.0
  0
LINE
  5
53E34
  8
0
 62
     0
 10
-18.546721869780882
 20
5.5058530068720231
 30
0.0
 11
-18.546721869780882
 21
5.5058530068720231
 31
0.0
  0
LINE
  5
53E35
  8
0
 62
     0
 10
-18.613013130517121
 20
5.4395617461357837
 30
0.0
 11
-18.613013130517121
 21
5.4395617461357837
 31
0.0
  0
LINE
  5
53E36
  8
0
 62
     0
 10
-18.679304391253361
 20
5.3732704853995461
 30
0.0
 11
-18.679304391253361
 21
5.3732704853995461
 31
0.0
  0
LINE
  5
53E37
  8
0
 62
     0
 10
-18.7455956519896
 20
5.3069792246633067
 30
0.0
 11
-18.7455956519896
 21
5.3069792246633067
 31
0.0
  0
LINE
  5
53E38
  8
0
 62
     0
 10
-18.811886912725839
 20
5.2406879639270691
 30
0.0
 11
-18.811886912725839
 21
5.2406879639270691
 31
0.0
  0
LINE
  5
53E39
  8
0
 62
     0
 10
-18.878178173462079
 20
5.1743967031908298
 30
0.0
 11
-18.878178173462079
 21
5.1743967031908298
 31
0.0
  0
LINE
  5
53E3A
  8
0
 62
     0
 10
-18.944469434198322
 20
5.1081054424545922
 30
0.0
 11
-18.944469434198322
 21
5.1081054424545922
 31
0.0
  0
LINE
  5
53E3B
  8
0
 62
     0
 10
-19.010760694934561
 20
5.0418141817183528
 30
0.0
 11
-19.010760694934561
 21
5.0418141817183528
 31
0.0
  0
LINE
  5
53E3C
  8
0
 62
     0
 10
-19.0770519556708
 20
4.9755229209821152
 30
0.0
 11
-19.0770519556708
 21
4.9755229209821152
 31
0.0
  0
LINE
  5
53E3D
  8
0
 62
     0
 10
-19.143343216407029
 20
4.9092316602458759
 30
0.0
 11
-19.143343216407029
 21
4.9092316602458759
 31
0.0
  0
LINE
  5
53E3E
  8
0
 62
     0
 10
-19.209634477143268
 20
4.8429403995096383
 30
0.0
 11
-19.209634477143268
 21
4.8429403995096383
 31
0.0
  0
LINE
  5
53E3F
  8
0
 62
     0
 10
-16.69056656916619
 20
7.3620083074867111
 30
0.0
 11
-16.69056656916619
 21
7.3620083074867111
 31
0.0
  0
LINE
  5
53E40
  8
0
 62
     0
 10
-16.75685782990243
 20
7.2957170467504717
 30
0.0
 11
-16.75685782990243
 21
7.2957170467504717
 31
0.0
  0
LINE
  5
53E41
  8
0
 62
     0
 10
-16.823149090638669
 20
7.2294257860142341
 30
0.0
 11
-16.823149090638669
 21
7.2294257860142341
 31
0.0
  0
LINE
  5
53E42
  8
0
 62
     0
 10
-16.889440351374908
 20
7.1631345252779948
 30
0.0
 11
-16.889440351374908
 21
7.1631345252779948
 31
0.0
  0
LINE
  5
53E43
  8
0
 62
     0
 10
-16.955731612111151
 20
7.0968432645417572
 30
0.0
 11
-16.955731612111151
 21
7.0968432645417572
 31
0.0
  0
LINE
  5
53E44
  8
0
 62
     0
 10
-17.022022872847391
 20
7.0305520038055178
 30
0.0
 11
-17.022022872847391
 21
7.0305520038055178
 31
0.0
  0
LINE
  5
53E45
  8
0
 62
     0
 10
-17.08831413358363
 20
6.9642607430692802
 30
0.0
 11
-17.08831413358363
 21
6.9642607430692802
 31
0.0
  0
LINE
  5
53E46
  8
0
 62
     0
 10
-17.154605394319869
 20
6.8979694823330409
 30
0.0
 11
-17.154605394319869
 21
6.8979694823330409
 31
0.0
  0
LINE
  5
53E47
  8
0
 62
     0
 10
-19.275925737879511
 20
4.7766491387733936
 30
0.0
 11
-19.275925737879511
 21
4.7766491387733936
 31
0.0
  0
LINE
  5
53E48
  8
0
 62
     0
 10
-19.342216998615751
 20
4.7103578780371551
 30
0.0
 11
-19.342216998615751
 21
4.7103578780371551
 31
0.0
  0
LINE
  5
53E49
  8
0
 62
     0
 10
-19.40850825935199
 20
4.6440666173009166
 30
0.0
 11
-19.40850825935199
 21
4.6440666173009166
 31
0.0
  0
LINE
  5
53E4A
  8
0
 62
     0
 10
-19.474799520088229
 20
4.577775356564679
 30
0.0
 11
-19.474799520088229
 21
4.577775356564679
 31
0.0
  0
LINE
  5
53E4B
  8
0
 62
     0
 10
-19.541090780824469
 20
4.5114840958284397
 30
0.0
 11
-19.541090780824469
 21
4.5114840958284397
 31
0.0
  0
LINE
  5
53E4C
  8
0
 62
     0
 10
-19.607382041560701
 20
4.4451928350922021
 30
0.0
 11
-19.607382041560701
 21
4.4451928350922021
 31
0.0
  0
LINE
  5
53E4D
  8
0
 62
     0
 10
-19.673673302296951
 20
4.3789015743559627
 30
0.0
 11
-19.673673302296951
 21
4.3789015743559627
 31
0.0
  0
LINE
  5
53E4E
  8
0
 62
     0
 10
-17.386624806896709
 20
6.7985325912286783
 30
0.0
 11
-17.386624806896709
 21
6.7985325912286783
 31
0.0
  0
LINE
  5
53E4F
  8
0
 62
     0
 10
-17.45291606763293
 20
6.73224133049243
 30
0.0
 11
-17.45291606763293
 21
6.73224133049243
 31
0.0
  0
LINE
  5
53E50
  8
0
 62
     0
 10
-17.51920732836917
 20
6.6659500697561924
 30
0.0
 11
-17.51920732836917
 21
6.6659500697561924
 31
0.0
  0
LINE
  5
53E51
  8
0
 62
     0
 10
-17.585498589105409
 20
6.5996588090199531
 30
0.0
 11
-17.585498589105409
 21
6.5996588090199531
 31
0.0
  0
LINE
  5
53E52
  8
0
 62
     0
 10
-17.651789849841649
 20
6.5333675482837146
 30
0.0
 11
-17.651789849841649
 21
6.5333675482837146
 31
0.0
  0
LINE
  5
53E53
  8
0
 62
     0
 10
-17.718081110577881
 20
6.4670762875474761
 30
0.0
 11
-17.718081110577881
 21
6.4670762875474761
 31
0.0
  0
LINE
  5
53E54
  8
0
 62
     0
 10
-17.78437237131412
 20
6.4007850268112376
 30
0.0
 11
-17.78437237131412
 21
6.4007850268112376
 31
0.0
  0
LINE
  5
53E55
  8
0
 62
     0
 10
-17.85066363205037
 20
6.334493766075
 30
0.0
 11
-17.85066363205037
 21
6.334493766075
 31
0.0
  0
LINE
  5
53E56
  8
0
 62
     0
 10
-17.916954892786599
 20
6.2682025053387607
 30
0.0
 11
-17.916954892786599
 21
6.2682025053387607
 31
0.0
  0
LINE
  5
53E57
  8
0
 62
     0
 10
-17.983246153522838
 20
6.2019112446025231
 30
0.0
 11
-17.983246153522838
 21
6.2019112446025231
 31
0.0
  0
LINE
  5
53E58
  8
0
 62
     0
 10
-18.049537414259081
 20
6.1356199838662837
 30
0.0
 11
-18.049537414259081
 21
6.1356199838662837
 31
0.0
  0
LINE
  5
53E59
  8
0
 62
     0
 10
-18.115828674995321
 20
6.0693287231300461
 30
0.0
 11
-18.115828674995321
 21
6.0693287231300461
 31
0.0
  0
LINE
  5
53E5A
  8
0
 62
     0
 10
-18.18211993573156
 20
6.0030374623938068
 30
0.0
 11
-18.18211993573156
 21
6.0030374623938068
 31
0.0
  0
LINE
  5
53E5B
  8
0
 62
     0
 10
-18.248411196467799
 20
5.9367462016575692
 30
0.0
 11
-18.248411196467799
 21
5.9367462016575692
 31
0.0
  0
LINE
  5
53E5C
  8
0
 62
     0
 10
-18.314702457204039
 20
5.8704549409213298
 30
0.0
 11
-18.314702457204039
 21
5.8704549409213298
 31
0.0
  0
LINE
  5
53E5D
  8
0
 62
     0
 10
-18.380993717940282
 20
5.8041636801850922
 30
0.0
 11
-18.380993717940282
 21
5.8041636801850922
 31
0.0
  0
LINE
  5
53E5E
  8
0
 62
     0
 10
-18.447284978676521
 20
5.7378724194488528
 30
0.0
 11
-18.447284978676521
 21
5.7378724194488528
 31
0.0
  0
LINE
  5
53E5F
  8
0
 62
     0
 10
-18.51357623941276
 20
5.6715811587126153
 30
0.0
 11
-18.51357623941276
 21
5.6715811587126153
 31
0.0
  0
LINE
  5
53E60
  8
0
 62
     0
 10
-18.579867500149
 20
5.6052898979763759
 30
0.0
 11
-18.579867500149
 21
5.6052898979763759
 31
0.0
  0
LINE
  5
53E61
  8
0
 62
     0
 10
-18.646158760885239
 20
5.5389986372401383
 30
0.0
 11
-18.646158760885239
 21
5.5389986372401383
 31
0.0
  0
LINE
  5
53E62
  8
0
 62
     0
 10
-18.712450021621478
 20
5.4727073765038989
 30
0.0
 11
-18.712450021621478
 21
5.4727073765038989
 31
0.0
  0
LINE
  5
53E63
  8
0
 62
     0
 10
-18.778741282357721
 20
5.4064161157676613
 30
0.0
 11
-18.778741282357721
 21
5.4064161157676613
 31
0.0
  0
LINE
  5
53E64
  8
0
 62
     0
 10
-18.845032543093961
 20
5.340124855031422
 30
0.0
 11
-18.845032543093961
 21
5.340124855031422
 31
0.0
  0
LINE
  5
53E65
  8
0
 62
     0
 10
-18.9113238038302
 20
5.2738335942951844
 30
0.0
 11
-18.9113238038302
 21
5.2738335942951844
 31
0.0
  0
LINE
  5
53E66
  8
0
 62
     0
 10
-18.977615064566429
 20
5.207542333558945
 30
0.0
 11
-18.977615064566429
 21
5.207542333558945
 31
0.0
  0
LINE
  5
53E67
  8
0
 62
     0
 10
-19.043906325302672
 20
5.1412510728227074
 30
0.0
 11
-19.043906325302672
 21
5.1412510728227074
 31
0.0
  0
LINE
  5
53E68
  8
0
 62
     0
 10
-19.110197586038911
 20
5.0749598120864681
 30
0.0
 11
-19.110197586038911
 21
5.0749598120864681
 31
0.0
  0
LINE
  5
53E69
  8
0
 62
     0
 10
-19.17648884677515
 20
5.0086685513502296
 30
0.0
 11
-19.17648884677515
 21
5.0086685513502296
 31
0.0
  0
LINE
  5
53E6A
  8
0
 62
     0
 10
-19.24278010751139
 20
4.942377290613992
 30
0.0
 11
-19.24278010751139
 21
4.942377290613992
 31
0.0
  0
LINE
  5
53E6B
  8
0
 62
     0
 10
-19.309071368247629
 20
4.8760860298777526
 30
0.0
 11
-19.309071368247629
 21
4.8760860298777526
 31
0.0
  0
LINE
  5
53E6C
  8
0
 62
     0
 10
-16.790003460270562
 20
7.3951539378548263
 30
0.0
 11
-16.790003460270562
 21
7.3951539378548263
 31
0.0
  0
LINE
  5
53E6D
  8
0
 62
     0
 10
-16.856294721006801
 20
7.328862677118587
 30
0.0
 11
-16.856294721006801
 21
7.328862677118587
 31
0.0
  0
LINE
  5
53E6E
  8
0
 62
     0
 10
-16.92258598174303
 20
7.2625714163823494
 30
0.0
 11
-16.92258598174303
 21
7.2625714163823494
 31
0.0
  0
LINE
  5
53E6F
  8
0
 62
     0
 10
-16.988877242479269
 20
7.19628015564611
 30
0.0
 11
-16.988877242479269
 21
7.19628015564611
 31
0.0
  0
LINE
  5
53E70
  8
0
 62
     0
 10
-17.055168503215508
 20
7.1299888949098724
 30
0.0
 11
-17.055168503215508
 21
7.1299888949098724
 31
0.0
  0
LINE
  5
53E71
  8
0
 62
     0
 10
-17.121459763951751
 20
7.0636976341736331
 30
0.0
 11
-17.121459763951751
 21
7.0636976341736331
 31
0.0
  0
LINE
  5
53E72
  8
0
 62
     0
 10
-17.187751024687991
 20
6.9974063734373946
 30
0.0
 11
-17.187751024687991
 21
6.9974063734373946
 31
0.0
  0
LINE
  5
53E73
  8
0
 62
     0
 10
-19.375362628983869
 20
4.809794769141515
 30
0.0
 11
-19.375362628983869
 21
4.809794769141515
 31
0.0
  0
LINE
  5
53E74
  8
0
 62
     0
 10
-19.441653889720111
 20
4.7435035084052757
 30
0.0
 11
-19.441653889720111
 21
4.7435035084052757
 31
0.0
  0
LINE
  5
53E75
  8
0
 62
     0
 10
-19.507945150456351
 20
4.6772122476690381
 30
0.0
 11
-19.507945150456351
 21
4.6772122476690381
 31
0.0
  0
LINE
  5
53E76
  8
0
 62
     0
 10
-19.57423641119259
 20
4.6109209869327987
 30
0.0
 11
-19.57423641119259
 21
4.6109209869327987
 31
0.0
  0
LINE
  5
53E77
  8
0
 62
     0
 10
-19.64052767192883
 20
4.5446297261965611
 30
0.0
 11
-19.64052767192883
 21
4.5446297261965611
 31
0.0
  0
LINE
  5
53E78
  8
0
 62
     0
 10
-19.706818932665069
 20
4.4783384654603218
 30
0.0
 11
-19.706818932665069
 21
4.4783384654603218
 31
0.0
  0
LINE
  5
53E79
  8
0
 62
     0
 10
-19.773110193401308
 20
4.4120472047240842
 30
0.0
 11
-19.773110193401308
 21
4.4120472047240842
 31
0.0
  0
LINE
  5
53E7A
  8
0
 62
     0
 10
-17.41977043726483
 20
6.8979694823330391
 30
0.0
 11
-17.41977043726483
 21
6.8979694823330391
 31
0.0
  0
LINE
  5
53E7B
  8
0
 62
     0
 10
-17.486061698001059
 20
6.8316782215967997
 30
0.0
 11
-17.486061698001059
 21
6.8316782215967997
 31
0.0
  0
LINE
  5
53E7C
  8
0
 62
     0
 10
-17.552352958737291
 20
6.7653869608605532
 30
0.0
 11
-17.552352958737291
 21
6.7653869608605532
 31
0.0
  0
LINE
  5
53E7D
  8
0
 62
     0
 10
-17.618644219473531
 20
6.6990957001243139
 30
0.0
 11
-17.618644219473531
 21
6.6990957001243139
 31
0.0
  0
LINE
  5
53E7E
  8
0
 62
     0
 10
-17.68493548020977
 20
6.6328044393880763
 30
0.0
 11
-17.68493548020977
 21
6.6328044393880763
 31
0.0
  0
LINE
  5
53E7F
  8
0
 62
     0
 10
-17.751226740946009
 20
6.5665131786518369
 30
0.0
 11
-17.751226740946009
 21
6.5665131786518369
 31
0.0
  0
LINE
  5
53E80
  8
0
 62
     0
 10
-17.817518001682249
 20
6.5002219179155993
 30
0.0
 11
-17.817518001682249
 21
6.5002219179155993
 31
0.0
  0
LINE
  5
53E81
  8
0
 62
     0
 10
-17.883809262418492
 20
6.43393065717936
 30
0.0
 11
-17.883809262418492
 21
6.43393065717936
 31
0.0
  0
LINE
  5
53E82
  8
0
 62
     0
 10
-17.950100523154731
 20
6.3676393964431224
 30
0.0
 11
-17.950100523154731
 21
6.3676393964431224
 31
0.0
  0
LINE
  5
53E83
  8
0
 62
     0
 10
-18.01639178389097
 20
6.301348135706883
 30
0.0
 11
-18.01639178389097
 21
6.301348135706883
 31
0.0
  0
LINE
  5
53E84
  8
0
 62
     0
 10
-18.082683044627199
 20
6.2350568749706454
 30
0.0
 11
-18.082683044627199
 21
6.2350568749706454
 31
0.0
  0
LINE
  5
53E85
  8
0
 62
     0
 10
-18.148974305363438
 20
6.1687656142344061
 30
0.0
 11
-18.148974305363438
 21
6.1687656142344061
 31
0.0
  0
LINE
  5
53E86
  8
0
 62
     0
 10
-18.215265566099681
 20
6.1024743534981676
 30
0.0
 11
-18.215265566099681
 21
6.1024743534981676
 31
0.0
  0
LINE
  5
53E87
  8
0
 62
     0
 10
-18.281556826835921
 20
6.0361830927619291
 30
0.0
 11
-18.281556826835921
 21
6.0361830927619291
 31
0.0
  0
LINE
  5
53E88
  8
0
 62
     0
 10
-18.34784808757216
 20
5.9698918320256906
 30
0.0
 11
-18.34784808757216
 21
5.9698918320256906
 31
0.0
  0
LINE
  5
53E89
  8
0
 62
     0
 10
-18.414139348308399
 20
5.903600571289453
 30
0.0
 11
-18.414139348308399
 21
5.903600571289453
 31
0.0
  0
LINE
  5
53E8A
  8
0
 62
     0
 10
-18.480430609044639
 20
5.8373093105532137
 30
0.0
 11
-18.480430609044639
 21
5.8373093105532137
 31
0.0
  0
LINE
  5
53E8B
  8
0
 62
     0
 10
-18.546721869780882
 20
5.7710180498169761
 30
0.0
 11
-18.546721869780882
 21
5.7710180498169761
 31
0.0
  0
LINE
  5
53E8C
  8
0
 62
     0
 10
-18.613013130517121
 20
5.7047267890807367
 30
0.0
 11
-18.613013130517121
 21
5.7047267890807367
 31
0.0
  0
LINE
  5
53E8D
  8
0
 62
     0
 10
-18.679304391253361
 20
5.6384355283444991
 30
0.0
 11
-18.679304391253361
 21
5.6384355283444991
 31
0.0
  0
LINE
  5
53E8E
  8
0
 62
     0
 10
-18.7455956519896
 20
5.5721442676082598
 30
0.0
 11
-18.7455956519896
 21
5.5721442676082598
 31
0.0
  0
LINE
  5
53E8F
  8
0
 62
     0
 10
-18.811886912725839
 20
5.5058530068720222
 30
0.0
 11
-18.811886912725839
 21
5.5058530068720222
 31
0.0
  0
LINE
  5
53E90
  8
0
 62
     0
 10
-18.878178173462079
 20
5.4395617461357828
 30
0.0
 11
-18.878178173462079
 21
5.4395617461357828
 31
0.0
  0
LINE
  5
53E91
  8
0
 62
     0
 10
-18.944469434198322
 20
5.3732704853995452
 30
0.0
 11
-18.944469434198322
 21
5.3732704853995452
 31
0.0
  0
LINE
  5
53E92
  8
0
 62
     0
 10
-19.010760694934561
 20
5.3069792246633058
 30
0.0
 11
-19.010760694934561
 21
5.3069792246633058
 31
0.0
  0
LINE
  5
53E93
  8
0
 62
     0
 10
-19.0770519556708
 20
5.2406879639270683
 30
0.0
 11
-19.0770519556708
 21
5.2406879639270683
 31
0.0
  0
LINE
  5
53E94
  8
0
 62
     0
 10
-19.143343216407029
 20
5.1743967031908289
 30
0.0
 11
-19.143343216407029
 21
5.1743967031908289
 31
0.0
  0
LINE
  5
53E95
  8
0
 62
     0
 10
-19.209634477143268
 20
5.1081054424545913
 30
0.0
 11
-19.209634477143268
 21
5.1081054424545913
 31
0.0
  0
LINE
  5
53E96
  8
0
 62
     0
 10
-19.275925737879511
 20
5.0418141817183519
 30
0.0
 11
-19.275925737879511
 21
5.0418141817183519
 31
0.0
  0
LINE
  5
53E97
  8
0
 62
     0
 10
-19.342216998615751
 20
4.9755229209821143
 30
0.0
 11
-19.342216998615751
 21
4.9755229209821143
 31
0.0
  0
LINE
  5
53E98
  8
0
 62
     0
 10
-16.889440351374908
 20
7.4282995682229469
 30
0.0
 11
-16.889440351374908
 21
7.4282995682229469
 31
0.0
  0
LINE
  5
53E99
  8
0
 62
     0
 10
-16.955731612111151
 20
7.3620083074867093
 30
0.0
 11
-16.955731612111151
 21
7.3620083074867093
 31
0.0
  0
LINE
  5
53E9A
  8
0
 62
     0
 10
-17.022022872847391
 20
7.2957170467504699
 30
0.0
 11
-17.022022872847391
 21
7.2957170467504699
 31
0.0
  0
LINE
  5
53E9B
  8
0
 62
     0
 10
-17.08831413358363
 20
7.2294257860142324
 30
0.0
 11
-17.08831413358363
 21
7.2294257860142324
 31
0.0
  0
LINE
  5
53E9C
  8
0
 62
     0
 10
-17.154605394319869
 20
7.163134525277993
 30
0.0
 11
-17.154605394319869
 21
7.163134525277993
 31
0.0
  0
LINE
  5
53E9D
  8
0
 62
     0
 10
-17.220896655056109
 20
7.0968432645417554
 30
0.0
 11
-17.220896655056109
 21
7.0968432645417554
 31
0.0
  0
LINE
  5
53E9E
  8
0
 62
     0
 10
-17.287187915792352
 20
7.030552003805516
 30
0.0
 11
-17.287187915792352
 21
7.030552003805516
 31
0.0
  0
LINE
  5
53E9F
  8
0
 62
     0
 10
-19.40850825935199
 20
4.9092316602458723
 30
0.0
 11
-19.40850825935199
 21
4.9092316602458723
 31
0.0
  0
LINE
  5
53EA0
  8
0
 62
     0
 10
-19.474799520088229
 20
4.842940399509633
 30
0.0
 11
-19.474799520088229
 21
4.842940399509633
 31
0.0
  0
LINE
  5
53EA1
  8
0
 62
     0
 10
-19.541090780824469
 20
4.7766491387733954
 30
0.0
 11
-19.541090780824469
 21
4.7766491387733954
 31
0.0
  0
LINE
  5
53EA2
  8
0
 62
     0
 10
-19.607382041560701
 20
4.710357878037156
 30
0.0
 11
-19.607382041560701
 21
4.710357878037156
 31
0.0
  0
LINE
  5
53EA3
  8
0
 62
     0
 10
-19.673673302296951
 20
4.6440666173009184
 30
0.0
 11
-19.673673302296951
 21
4.6440666173009184
 31
0.0
  0
LINE
  5
53EA4
  8
0
 62
     0
 10
-19.73996456303319
 20
4.577775356564679
 30
0.0
 11
-19.73996456303319
 21
4.577775356564679
 31
0.0
  0
LINE
  5
53EA5
  8
0
 62
     0
 10
-19.806255823769419
 20
4.5114840958284406
 30
0.0
 11
-19.806255823769419
 21
4.5114840958284406
 31
0.0
  0
LINE
  5
53EA6
  8
0
 62
     0
 10
-17.51920732836918
 20
6.9311151127011588
 30
0.0
 11
-17.51920732836918
 21
6.9311151127011588
 31
0.0
  0
LINE
  5
53EA7
  8
0
 62
     0
 10
-17.585498589105409
 20
6.8648238519649096
 30
0.0
 11
-17.585498589105409
 21
6.8648238519649096
 31
0.0
  0
LINE
  5
53EA8
  8
0
 62
     0
 10
-17.651789849841649
 20
6.798532591228672
 30
0.0
 11
-17.651789849841649
 21
6.798532591228672
 31
0.0
  0
LINE
  5
53EA9
  8
0
 62
     0
 10
-17.718081110577881
 20
6.7322413304924327
 30
0.0
 11
-17.718081110577881
 21
6.7322413304924327
 31
0.0
  0
LINE
  5
53EAA
  8
0
 62
     0
 10
-17.78437237131412
 20
6.6659500697561951
 30
0.0
 11
-17.78437237131412
 21
6.6659500697561951
 31
0.0
  0
LINE
  5
53EAB
  8
0
 62
     0
 10
-17.85066363205037
 20
6.5996588090199557
 30
0.0
 11
-17.85066363205037
 21
6.5996588090199557
 31
0.0
  0
LINE
  5
53EAC
  8
0
 62
     0
 10
-17.916954892786599
 20
6.5333675482837181
 30
0.0
 11
-17.916954892786599
 21
6.5333675482837181
 31
0.0
  0
LINE
  5
53EAD
  8
0
 62
     0
 10
-17.983246153522838
 20
6.4670762875474788
 30
0.0
 11
-17.983246153522838
 21
6.4670762875474788
 31
0.0
  0
LINE
  5
53EAE
  8
0
 62
     0
 10
-18.049537414259081
 20
6.4007850268112412
 30
0.0
 11
-18.049537414259081
 21
6.4007850268112412
 31
0.0
  0
LINE
  5
53EAF
  8
0
 62
     0
 10
-18.115828674995321
 20
6.3344937660750018
 30
0.0
 11
-18.115828674995321
 21
6.3344937660750018
 31
0.0
  0
LINE
  5
53EB0
  8
0
 62
     0
 10
-18.18211993573156
 20
6.2682025053387642
 30
0.0
 11
-18.18211993573156
 21
6.2682025053387642
 31
0.0
  0
LINE
  5
53EB1
  8
0
 62
     0
 10
-18.248411196467799
 20
6.2019112446025249
 30
0.0
 11
-18.248411196467799
 21
6.2019112446025249
 31
0.0
  0
LINE
  5
53EB2
  8
0
 62
     0
 10
-18.314702457204039
 20
6.1356199838662873
 30
0.0
 11
-18.314702457204039
 21
6.1356199838662873
 31
0.0
  0
LINE
  5
53EB3
  8
0
 62
     0
 10
-18.380993717940282
 20
6.0693287231300479
 30
0.0
 11
-18.380993717940282
 21
6.0693287231300479
 31
0.0
  0
LINE
  5
53EB4
  8
0
 62
     0
 10
-18.447284978676521
 20
6.0030374623938103
 30
0.0
 11
-18.447284978676521
 21
6.0030374623938103
 31
0.0
  0
LINE
  5
53EB5
  8
0
 62
     0
 10
-18.51357623941276
 20
5.9367462016575709
 30
0.0
 11
-18.51357623941276
 21
5.9367462016575709
 31
0.0
  0
LINE
  5
53EB6
  8
0
 62
     0
 10
-18.579867500149
 20
5.8704549409213334
 30
0.0
 11
-18.579867500149
 21
5.8704549409213334
 31
0.0
  0
LINE
  5
53EB7
  8
0
 62
     0
 10
-18.646158760885239
 20
5.804163680185094
 30
0.0
 11
-18.646158760885239
 21
5.804163680185094
 31
0.0
  0
LINE
  5
53EB8
  8
0
 62
     0
 10
-18.712450021621478
 20
5.7378724194488564
 30
0.0
 11
-18.712450021621478
 21
5.7378724194488564
 31
0.0
  0
LINE
  5
53EB9
  8
0
 62
     0
 10
-18.778741282357721
 20
5.671581158712617
 30
0.0
 11
-18.778741282357721
 21
5.671581158712617
 31
0.0
  0
LINE
  5
53EBA
  8
0
 62
     0
 10
-18.845032543093961
 20
5.6052898979763794
 30
0.0
 11
-18.845032543093961
 21
5.6052898979763794
 31
0.0
  0
LINE
  5
53EBB
  8
0
 62
     0
 10
-18.9113238038302
 20
5.5389986372401401
 30
0.0
 11
-18.9113238038302
 21
5.5389986372401401
 31
0.0
  0
LINE
  5
53EBC
  8
0
 62
     0
 10
-18.977615064566429
 20
5.4727073765039016
 30
0.0
 11
-18.977615064566429
 21
5.4727073765039016
 31
0.0
  0
LINE
  5
53EBD
  8
0
 62
     0
 10
-19.043906325302672
 20
5.406416115767664
 30
0.0
 11
-19.043906325302672
 21
5.406416115767664
 31
0.0
  0
LINE
  5
53EBE
  8
0
 62
     0
 10
-19.110197586038911
 20
5.3401248550314246
 30
0.0
 11
-19.110197586038911
 21
5.3401248550314246
 31
0.0
  0
LINE
  5
53EBF
  8
0
 62
     0
 10
-19.17648884677515
 20
5.2738335942951871
 30
0.0
 11
-19.17648884677515
 21
5.2738335942951871
 31
0.0
  0
LINE
  5
53EC0
  8
0
 62
     0
 10
-19.24278010751139
 20
5.2075423335589477
 30
0.0
 11
-19.24278010751139
 21
5.2075423335589477
 31
0.0
  0
LINE
  5
53EC1
  8
0
 62
     0
 10
-19.309071368247629
 20
5.1412510728227101
 30
0.0
 11
-19.309071368247629
 21
5.1412510728227101
 31
0.0
  0
LINE
  5
53EC2
  8
0
 62
     0
 10
-19.375362628983869
 20
5.0749598120864707
 30
0.0
 11
-19.375362628983869
 21
5.0749598120864707
 31
0.0
  0
LINE
  5
53EC3
  8
0
 62
     0
 10
-19.441653889720111
 20
5.0086685513502331
 30
0.0
 11
-19.441653889720111
 21
5.0086685513502331
 31
0.0
  0
LINE
  5
53EC4
  8
0
 62
     0
 10
-16.988877242479269
 20
7.4614451985910666
 30
0.0
 11
-16.988877242479269
 21
7.4614451985910666
 31
0.0
  0
LINE
  5
53EC5
  8
0
 62
     0
 10
-17.055168503215508
 20
7.3951539378548281
 30
0.0
 11
-17.055168503215508
 21
7.3951539378548281
 31
0.0
  0
LINE
  5
53EC6
  8
0
 62
     0
 10
-17.121459763951751
 20
7.3288626771185896
 30
0.0
 11
-17.121459763951751
 21
7.3288626771185896
 31
0.0
  0
LINE
  5
53EC7
  8
0
 62
     0
 10
-17.187751024687991
 20
7.262571416382352
 30
0.0
 11
-17.187751024687991
 21
7.262571416382352
 31
0.0
  0
LINE
  5
53EC8
  8
0
 62
     0
 10
-17.25404228542423
 20
7.1962801556461127
 30
0.0
 11
-17.25404228542423
 21
7.1962801556461127
 31
0.0
  0
LINE
  5
53EC9
  8
0
 62
     0
 10
-17.320333546160469
 20
7.1299888949098751
 30
0.0
 11
-17.320333546160469
 21
7.1299888949098751
 31
0.0
  0
LINE
  5
53ECA
  8
0
 62
     0
 10
-17.386624806896709
 20
7.0636976341736357
 30
0.0
 11
-17.386624806896709
 21
7.0636976341736357
 31
0.0
  0
LINE
  5
53ECB
  8
0
 62
     0
 10
-19.50794515045634
 20
4.9423772906139938
 30
0.0
 11
-19.50794515045634
 21
4.9423772906139938
 31
0.0
  0
LINE
  5
53ECC
  8
0
 62
     0
 10
-19.57423641119258
 20
4.8760860298777562
 30
0.0
 11
-19.57423641119258
 21
4.8760860298777562
 31
0.0
  0
LINE
  5
53ECD
  8
0
 62
     0
 10
-19.640527671928819
 20
4.8097947691415168
 30
0.0
 11
-19.640527671928819
 21
4.8097947691415168
 31
0.0
  0
LINE
  5
53ECE
  8
0
 62
     0
 10
-19.706818932665058
 20
4.7435035084052792
 30
0.0
 11
-19.706818932665058
 21
4.7435035084052792
 31
0.0
  0
LINE
  5
53ECF
  8
0
 62
     0
 10
-19.773110193401301
 20
4.6772122476690399
 30
0.0
 11
-19.773110193401301
 21
4.6772122476690399
 31
0.0
  0
LINE
  5
53ED0
  8
0
 62
     0
 10
-19.839401454137541
 20
4.6109209869328023
 30
0.0
 11
-19.839401454137541
 21
4.6109209869328023
 31
0.0
  0
LINE
  5
53ED1
  8
0
 62
     0
 10
-19.90569271487378
 20
4.5446297261965629
 30
0.0
 11
-19.90569271487378
 21
4.5446297261965629
 31
0.0
  0
LINE
  5
53ED2
  8
0
 62
     0
 10
-17.618644219473548
 20
6.964260743069274
 30
0.0
 11
-17.618644219473548
 21
6.964260743069274
 31
0.0
  0
LINE
  5
53ED3
  8
0
 62
     0
 10
-17.68493548020977
 20
6.8979694823330266
 30
0.0
 11
-17.68493548020977
 21
6.8979694823330266
 31
0.0
  0
LINE
  5
53ED4
  8
0
 62
     0
 10
-17.751226740946009
 20
6.8316782215967891
 30
0.0
 11
-17.751226740946009
 21
6.8316782215967891
 31
0.0
  0
LINE
  5
53ED5
  8
0
 62
     0
 10
-17.817518001682249
 20
6.7653869608605497
 30
0.0
 11
-17.817518001682249
 21
6.7653869608605497
 31
0.0
  0
LINE
  5
53ED6
  8
0
 62
     0
 10
-17.883809262418492
 20
6.6990957001243121
 30
0.0
 11
-17.883809262418492
 21
6.6990957001243121
 31
0.0
  0
LINE
  5
53ED7
  8
0
 62
     0
 10
-17.950100523154731
 20
6.6328044393880727
 30
0.0
 11
-17.950100523154731
 21
6.6328044393880727
 31
0.0
  0
LINE
  5
53ED8
  8
0
 62
     0
 10
-18.01639178389097
 20
6.5665131786518351
 30
0.0
 11
-18.01639178389097
 21
6.5665131786518351
 31
0.0
  0
LINE
  5
53ED9
  8
0
 62
     0
 10
-18.082683044627199
 20
6.5002219179155958
 30
0.0
 11
-18.082683044627199
 21
6.5002219179155958
 31
0.0
  0
LINE
  5
53EDA
  8
0
 62
     0
 10
-18.148974305363438
 20
6.4339306571793582
 30
0.0
 11
-18.148974305363438
 21
6.4339306571793582
 31
0.0
  0
LINE
  5
53EDB
  8
0
 62
     0
 10
-18.215265566099681
 20
6.3676393964431188
 30
0.0
 11
-18.215265566099681
 21
6.3676393964431188
 31
0.0
  0
LINE
  5
53EDC
  8
0
 62
     0
 10
-18.281556826835921
 20
6.3013481357068812
 30
0.0
 11
-18.281556826835921
 21
6.3013481357068812
 31
0.0
  0
LINE
  5
53EDD
  8
0
 62
     0
 10
-18.34784808757216
 20
6.2350568749706419
 30
0.0
 11
-18.34784808757216
 21
6.2350568749706419
 31
0.0
  0
LINE
  5
53EDE
  8
0
 62
     0
 10
-18.414139348308399
 20
6.1687656142344043
 30
0.0
 11
-18.414139348308399
 21
6.1687656142344043
 31
0.0
  0
LINE
  5
53EDF
  8
0
 62
     0
 10
-18.480430609044639
 20
6.1024743534981649
 30
0.0
 11
-18.480430609044639
 21
6.1024743534981649
 31
0.0
  0
LINE
  5
53EE0
  8
0
 62
     0
 10
-18.546721869780882
 20
6.0361830927619273
 30
0.0
 11
-18.546721869780882
 21
6.0361830927619273
 31
0.0
  0
LINE
  5
53EE1
  8
0
 62
     0
 10
-18.613013130517121
 20
5.969891832025688
 30
0.0
 11
-18.613013130517121
 21
5.969891832025688
 31
0.0
  0
LINE
  5
53EE2
  8
0
 62
     0
 10
-18.679304391253361
 20
5.9036005712894504
 30
0.0
 11
-18.679304391253361
 21
5.9036005712894504
 31
0.0
  0
LINE
  5
53EE3
  8
0
 62
     0
 10
-18.7455956519896
 20
5.837309310553211
 30
0.0
 11
-18.7455956519896
 21
5.837309310553211
 31
0.0
  0
LINE
  5
53EE4
  8
0
 62
     0
 10
-18.811886912725839
 20
5.7710180498169734
 30
0.0
 11
-18.811886912725839
 21
5.7710180498169734
 31
0.0
  0
LINE
  5
53EE5
  8
0
 62
     0
 10
-18.878178173462079
 20
5.7047267890807341
 30
0.0
 11
-18.878178173462079
 21
5.7047267890807341
 31
0.0
  0
LINE
  5
53EE6
  8
0
 62
     0
 10
-18.944469434198322
 20
5.6384355283444956
 30
0.0
 11
-18.944469434198322
 21
5.6384355283444956
 31
0.0
  0
LINE
  5
53EE7
  8
0
 62
     0
 10
-19.010760694934561
 20
5.5721442676082571
 30
0.0
 11
-19.010760694934561
 21
5.5721442676082571
 31
0.0
  0
LINE
  5
53EE8
  8
0
 62
     0
 10
-19.0770519556708
 20
5.5058530068720186
 30
0.0
 11
-19.0770519556708
 21
5.5058530068720186
 31
0.0
  0
LINE
  5
53EE9
  8
0
 62
     0
 10
-19.143343216407029
 20
5.439561746135781
 30
0.0
 11
-19.143343216407029
 21
5.439561746135781
 31
0.0
  0
LINE
  5
53EEA
  8
0
 62
     0
 10
-19.209634477143268
 20
5.3732704853995417
 30
0.0
 11
-19.209634477143268
 21
5.3732704853995417
 31
0.0
  0
LINE
  5
53EEB
  8
0
 62
     0
 10
-19.275925737879511
 20
5.3069792246633041
 30
0.0
 11
-19.275925737879511
 21
5.3069792246633041
 31
0.0
  0
LINE
  5
53EEC
  8
0
 62
     0
 10
-19.342216998615751
 20
5.2406879639270647
 30
0.0
 11
-19.342216998615751
 21
5.2406879639270647
 31
0.0
  0
LINE
  5
53EED
  8
0
 62
     0
 10
-19.40850825935199
 20
5.1743967031908271
 30
0.0
 11
-19.40850825935199
 21
5.1743967031908271
 31
0.0
  0
LINE
  5
53EEE
  8
0
 62
     0
 10
-19.474799520088229
 20
5.1081054424545878
 30
0.0
 11
-19.474799520088229
 21
5.1081054424545878
 31
0.0
  0
LINE
  5
53EEF
  8
0
 62
     0
 10
-19.541090780824469
 20
5.0418141817183502
 30
0.0
 11
-19.541090780824469
 21
5.0418141817183502
 31
0.0
  0
LINE
  5
53EF0
  8
0
 62
     0
 10
-17.08831413358363
 20
7.4945908289591872
 30
0.0
 11
-17.08831413358363
 21
7.4945908289591872
 31
0.0
  0
LINE
  5
53EF1
  8
0
 62
     0
 10
-17.154605394319869
 20
7.4282995682229478
 30
0.0
 11
-17.154605394319869
 21
7.4282995682229478
 31
0.0
  0
LINE
  5
53EF2
  8
0
 62
     0
 10
-17.220896655056109
 20
7.3620083074867102
 30
0.0
 11
-17.220896655056109
 21
7.3620083074867102
 31
0.0
  0
LINE
  5
53EF3
  8
0
 62
     0
 10
-17.287187915792341
 20
7.2957170467504708
 30
0.0
 11
-17.287187915792341
 21
7.2957170467504708
 31
0.0
  0
LINE
  5
53EF4
  8
0
 62
     0
 10
-17.353479176528591
 20
7.2294257860142332
 30
0.0
 11
-17.353479176528591
 21
7.2294257860142332
 31
0.0
  0
LINE
  5
53EF5
  8
0
 62
     0
 10
-17.41977043726483
 20
7.1631345252779939
 30
0.0
 11
-17.41977043726483
 21
7.1631345252779939
 31
0.0
  0
LINE
  5
53EF6
  8
0
 62
     0
 10
-17.486061698001059
 20
7.0968432645417563
 30
0.0
 11
-17.486061698001059
 21
7.0968432645417563
 31
0.0
  0
LINE
  5
53EF7
  8
0
 62
     0
 10
-19.607382041560701
 20
4.975522920982109
 30
0.0
 11
-19.607382041560701
 21
4.975522920982109
 31
0.0
  0
LINE
  5
53EF8
  8
0
 62
     0
 10
-19.673673302296951
 20
4.9092316602458714
 30
0.0
 11
-19.673673302296951
 21
4.9092316602458714
 31
0.0
  0
LINE
  5
53EF9
  8
0
 62
     0
 10
-19.73996456303319
 20
4.8429403995096321
 30
0.0
 11
-19.73996456303319
 21
4.8429403995096321
 31
0.0
  0
LINE
  5
53EFA
  8
0
 62
     0
 10
-19.806255823769419
 20
4.7766491387733936
 30
0.0
 11
-19.806255823769419
 21
4.7766491387733936
 31
0.0
  0
LINE
  5
53EFB
  8
0
 62
     0
 10
-19.872547084505658
 20
4.7103578780371551
 30
0.0
 11
-19.872547084505658
 21
4.7103578780371551
 31
0.0
  0
LINE
  5
53EFC
  8
0
 62
     0
 10
-19.938838345241901
 20
4.6440666173009166
 30
0.0
 11
-19.938838345241901
 21
4.6440666173009166
 31
0.0
  0
LINE
  5
53EFD
  8
0
 62
     0
 10
-20.005129605978151
 20
4.577775356564679
 30
0.0
 11
-20.005129605978151
 21
4.577775356564679
 31
0.0
  0
LINE
  5
53EFE
  8
0
 62
     0
 10
-17.718081110577899
 20
6.9974063734373981
 30
0.0
 11
-17.718081110577899
 21
6.9974063734373981
 31
0.0
  0
LINE
  5
53EFF
  8
0
 62
     0
 10
-17.78437237131412
 20
6.9311151127011481
 30
0.0
 11
-17.78437237131412
 21
6.9311151127011481
 31
0.0
  0
LINE
  5
53F00
  8
0
 62
     0
 10
-17.85066363205037
 20
6.8648238519649087
 30
0.0
 11
-17.85066363205037
 21
6.8648238519649087
 31
0.0
  0
LINE
  5
53F01
  8
0
 62
     0
 10
-17.916954892786599
 20
6.7985325912286712
 30
0.0
 11
-17.916954892786599
 21
6.7985325912286712
 31
0.0
  0
LINE
  5
53F02
  8
0
 62
     0
 10
-17.983246153522838
 20
6.7322413304924318
 30
0.0
 11
-17.983246153522838
 21
6.7322413304924318
 31
0.0
  0
LINE
  5
53F03
  8
0
 62
     0
 10
-18.049537414259081
 20
6.6659500697561942
 30
0.0
 11
-18.049537414259081
 21
6.6659500697561942
 31
0.0
  0
LINE
  5
53F04
  8
0
 62
     0
 10
-18.115828674995321
 20
6.5996588090199548
 30
0.0
 11
-18.115828674995321
 21
6.5996588090199548
 31
0.0
  0
LINE
  5
53F05
  8
0
 62
     0
 10
-18.18211993573156
 20
6.5333675482837172
 30
0.0
 11
-18.18211993573156
 21
6.5333675482837172
 31
0.0
  0
LINE
  5
53F06
  8
0
 62
     0
 10
-18.248411196467799
 20
6.4670762875474779
 30
0.0
 11
-18.248411196467799
 21
6.4670762875474779
 31
0.0
  0
LINE
  5
53F07
  8
0
 62
     0
 10
-18.314702457204039
 20
6.4007850268112403
 30
0.0
 11
-18.314702457204039
 21
6.4007850268112403
 31
0.0
  0
LINE
  5
53F08
  8
0
 62
     0
 10
-18.380993717940282
 20
6.3344937660750009
 30
0.0
 11
-18.380993717940282
 21
6.3344937660750009
 31
0.0
  0
LINE
  5
53F09
  8
0
 62
     0
 10
-18.447284978676521
 20
6.2682025053387633
 30
0.0
 11
-18.447284978676521
 21
6.2682025053387633
 31
0.0
  0
LINE
  5
53F0A
  8
0
 62
     0
 10
-18.51357623941276
 20
6.201911244602524
 30
0.0
 11
-18.51357623941276
 21
6.201911244602524
 31
0.0
  0
LINE
  5
53F0B
  8
0
 62
     0
 10
-18.579867500149
 20
6.1356199838662864
 30
0.0
 11
-18.579867500149
 21
6.1356199838662864
 31
0.0
  0
LINE
  5
53F0C
  8
0
 62
     0
 10
-18.646158760885239
 20
6.069328723130047
 30
0.0
 11
-18.646158760885239
 21
6.069328723130047
 31
0.0
  0
LINE
  5
53F0D
  8
0
 62
     0
 10
-18.712450021621478
 20
6.0030374623938094
 30
0.0
 11
-18.712450021621478
 21
6.0030374623938094
 31
0.0
  0
LINE
  5
53F0E
  8
0
 62
     0
 10
-18.778741282357721
 20
5.9367462016575701
 30
0.0
 11
-18.778741282357721
 21
5.9367462016575701
 31
0.0
  0
LINE
  5
53F0F
  8
0
 62
     0
 10
-18.845032543093961
 20
5.8704549409213316
 30
0.0
 11
-18.845032543093961
 21
5.8704549409213316
 31
0.0
  0
LINE
  5
53F10
  8
0
 62
     0
 10
-18.9113238038302
 20
5.8041636801850931
 30
0.0
 11
-18.9113238038302
 21
5.8041636801850931
 31
0.0
  0
LINE
  5
53F11
  8
0
 62
     0
 10
-18.977615064566429
 20
5.7378724194488546
 30
0.0
 11
-18.977615064566429
 21
5.7378724194488546
 31
0.0
  0
LINE
  5
53F12
  8
0
 62
     0
 10
-19.043906325302672
 20
5.671581158712617
 30
0.0
 11
-19.043906325302672
 21
5.671581158712617
 31
0.0
  0
LINE
  5
53F13
  8
0
 62
     0
 10
-19.110197586038911
 20
5.6052898979763777
 30
0.0
 11
-19.110197586038911
 21
5.6052898979763777
 31
0.0
  0
LINE
  5
53F14
  8
0
 62
     0
 10
-19.17648884677515
 20
5.5389986372401401
 30
0.0
 11
-19.17648884677515
 21
5.5389986372401401
 31
0.0
  0
LINE
  5
53F15
  8
0
 62
     0
 10
-19.24278010751139
 20
5.4727073765039007
 30
0.0
 11
-19.24278010751139
 21
5.4727073765039007
 31
0.0
  0
LINE
  5
53F16
  8
0
 62
     0
 10
-19.309071368247629
 20
5.4064161157676631
 30
0.0
 11
-19.309071368247629
 21
5.4064161157676631
 31
0.0
  0
LINE
  5
53F17
  8
0
 62
     0
 10
-19.375362628983869
 20
5.3401248550314238
 30
0.0
 11
-19.375362628983869
 21
5.3401248550314238
 31
0.0
  0
LINE
  5
53F18
  8
0
 62
     0
 10
-19.441653889720111
 20
5.2738335942951862
 30
0.0
 11
-19.441653889720111
 21
5.2738335942951862
 31
0.0
  0
LINE
  5
53F19
  8
0
 62
     0
 10
-19.507945150456351
 20
5.2075423335589468
 30
0.0
 11
-19.507945150456351
 21
5.2075423335589468
 31
0.0
  0
LINE
  5
53F1A
  8
0
 62
     0
 10
-19.57423641119259
 20
5.1412510728227092
 30
0.0
 11
-19.57423641119259
 21
5.1412510728227092
 31
0.0
  0
LINE
  5
53F1B
  8
0
 62
     0
 10
-19.64052767192883
 20
5.0749598120864698
 30
0.0
 11
-19.64052767192883
 21
5.0749598120864698
 31
0.0
  0
LINE
  5
53F1C
  8
0
 62
     0
 10
-17.121459763951751
 20
7.5940277200635462
 30
0.0
 11
-17.121459763951751
 21
7.5940277200635462
 31
0.0
  0
LINE
  5
53F1D
  8
0
 62
     0
 10
-17.18775102468798
 20
7.5277364593273068
 30
0.0
 11
-17.18775102468798
 21
7.5277364593273068
 31
0.0
  0
LINE
  5
53F1E
  8
0
 62
     0
 10
-17.254042285424219
 20
7.4614451985910692
 30
0.0
 11
-17.254042285424219
 21
7.4614451985910692
 31
0.0
  0
LINE
  5
53F1F
  8
0
 62
     0
 10
-17.320333546160459
 20
7.3951539378548299
 30
0.0
 11
-17.320333546160459
 21
7.3951539378548299
 31
0.0
  0
LINE
  5
53F20
  8
0
 62
     0
 10
-17.386624806896702
 20
7.3288626771185923
 30
0.0
 11
-17.386624806896702
 21
7.3288626771185923
 31
0.0
  0
LINE
  5
53F21
  8
0
 62
     0
 10
-17.452916067632941
 20
7.2625714163823529
 30
0.0
 11
-17.452916067632941
 21
7.2625714163823529
 31
0.0
  0
LINE
  5
53F22
  8
0
 62
     0
 10
-17.51920732836918
 20
7.1962801556461153
 30
0.0
 11
-17.51920732836918
 21
7.1962801556461153
 31
0.0
  0
LINE
  5
53F23
  8
0
 62
     0
 10
-19.706818932665058
 20
5.0086685513502314
 30
0.0
 11
-19.706818932665058
 21
5.0086685513502314
 31
0.0
  0
LINE
  5
53F24
  8
0
 62
     0
 10
-19.773110193401301
 20
4.942377290613992
 30
0.0
 11
-19.773110193401301
 21
4.942377290613992
 31
0.0
  0
LINE
  5
53F25
  8
0
 62
     0
 10
-19.839401454137541
 20
4.8760860298777544
 30
0.0
 11
-19.839401454137541
 21
4.8760860298777544
 31
0.0
  0
LINE
  5
53F26
  8
0
 62
     0
 10
-19.90569271487378
 20
4.809794769141515
 30
0.0
 11
-19.90569271487378
 21
4.809794769141515
 31
0.0
  0
LINE
  5
53F27
  8
0
 62
     0
 10
-19.971983975610019
 20
4.7435035084052766
 30
0.0
 11
-19.971983975610019
 21
4.7435035084052766
 31
0.0
  0
LINE
  5
53F28
  8
0
 62
     0
 10
-20.038275236346259
 20
4.6772122476690381
 30
0.0
 11
-20.038275236346259
 21
4.6772122476690381
 31
0.0
  0
LINE
  5
53F29
  8
0
 62
     0
 10
-20.104566497082502
 20
4.6109209869327996
 30
0.0
 11
-20.104566497082502
 21
4.6109209869327996
 31
0.0
  0
LINE
  5
53F2A
  8
0
 62
     0
 10
-17.75122674094602
 20
7.0968432645417581
 30
0.0
 11
-17.75122674094602
 21
7.0968432645417581
 31
0.0
  0
LINE
  5
53F2B
  8
0
 62
     0
 10
-17.817518001682249
 20
7.0305520038055187
 30
0.0
 11
-17.817518001682249
 21
7.0305520038055187
 31
0.0
  0
LINE
  5
53F2C
  8
0
 62
     0
 10
-17.883809262418481
 20
6.9642607430692687
 30
0.0
 11
-17.883809262418481
 21
6.9642607430692687
 31
0.0
  0
LINE
  5
53F2D
  8
0
 62
     0
 10
-17.95010052315472
 20
6.8979694823330311
 30
0.0
 11
-17.95010052315472
 21
6.8979694823330311
 31
0.0
  0
LINE
  5
53F2E
  8
0
 62
     0
 10
-18.01639178389096
 20
6.8316782215967917
 30
0.0
 11
-18.01639178389096
 21
6.8316782215967917
 31
0.0
  0
LINE
  5
53F2F
  8
0
 62
     0
 10
-18.082683044627199
 20
6.7653869608605541
 30
0.0
 11
-18.082683044627199
 21
6.7653869608605541
 31
0.0
  0
LINE
  5
53F30
  8
0
 62
     0
 10
-18.148974305363438
 20
6.6990957001243148
 30
0.0
 11
-18.148974305363438
 21
6.6990957001243148
 31
0.0
  0
LINE
  5
53F31
  8
0
 62
     0
 10
-18.215265566099681
 20
6.6328044393880772
 30
0.0
 11
-18.215265566099681
 21
6.6328044393880772
 31
0.0
  0
LINE
  5
53F32
  8
0
 62
     0
 10
-18.281556826835921
 20
6.5665131786518378
 30
0.0
 11
-18.281556826835921
 21
6.5665131786518378
 31
0.0
  0
LINE
  5
53F33
  8
0
 62
     0
 10
-18.34784808757216
 20
6.5002219179156002
 30
0.0
 11
-18.34784808757216
 21
6.5002219179156002
 31
0.0
  0
LINE
  5
53F34
  8
0
 62
     0
 10
-18.414139348308389
 20
6.4339306571793609
 30
0.0
 11
-18.414139348308389
 21
6.4339306571793609
 31
0.0
  0
LINE
  5
53F35
  8
0
 62
     0
 10
-18.480430609044632
 20
6.3676393964431233
 30
0.0
 11
-18.480430609044632
 21
6.3676393964431233
 31
0.0
  0
LINE
  5
53F36
  8
0
 62
     0
 10
-18.546721869780871
 20
6.3013481357068839
 30
0.0
 11
-18.546721869780871
 21
6.3013481357068839
 31
0.0
  0
LINE
  5
53F37
  8
0
 62
     0
 10
-18.61301313051711
 20
6.2350568749706463
 30
0.0
 11
-18.61301313051711
 21
6.2350568749706463
 31
0.0
  0
LINE
  5
53F38
  8
0
 62
     0
 10
-18.67930439125335
 20
6.1687656142344069
 30
0.0
 11
-18.67930439125335
 21
6.1687656142344069
 31
0.0
  0
LINE
  5
53F39
  8
0
 62
     0
 10
-18.745595651989589
 20
6.1024743534981694
 30
0.0
 11
-18.745595651989589
 21
6.1024743534981694
 31
0.0
  0
LINE
  5
53F3A
  8
0
 62
     0
 10
-18.811886912725829
 20
6.03618309276193
 30
0.0
 11
-18.811886912725829
 21
6.03618309276193
 31
0.0
  0
LINE
  5
53F3B
  8
0
 62
     0
 10
-18.878178173462071
 20
5.9698918320256924
 30
0.0
 11
-18.878178173462071
 21
5.9698918320256924
 31
0.0
  0
LINE
  5
53F3C
  8
0
 62
     0
 10
-18.944469434198311
 20
5.903600571289453
 30
0.0
 11
-18.944469434198311
 21
5.903600571289453
 31
0.0
  0
LINE
  5
53F3D
  8
0
 62
     0
 10
-19.01076069493455
 20
5.8373093105532146
 30
0.0
 11
-19.01076069493455
 21
5.8373093105532146
 31
0.0
  0
LINE
  5
53F3E
  8
0
 62
     0
 10
-19.07705195567079
 20
5.7710180498169761
 30
0.0
 11
-19.07705195567079
 21
5.7710180498169761
 31
0.0
  0
LINE
  5
53F3F
  8
0
 62
     0
 10
-19.143343216407029
 20
5.7047267890807376
 30
0.0
 11
-19.143343216407029
 21
5.7047267890807376
 31
0.0
  0
LINE
  5
53F40
  8
0
 62
     0
 10
-19.209634477143268
 20
5.6384355283445
 30
0.0
 11
-19.209634477143268
 21
5.6384355283445
 31
0.0
  0
LINE
  5
53F41
  8
0
 62
     0
 10
-19.275925737879511
 20
5.5721442676082606
 30
0.0
 11
-19.275925737879511
 21
5.5721442676082606
 31
0.0
  0
LINE
  5
53F42
  8
0
 62
     0
 10
-19.342216998615751
 20
5.5058530068720231
 30
0.0
 11
-19.342216998615751
 21
5.5058530068720231
 31
0.0
  0
LINE
  5
53F43
  8
0
 62
     0
 10
-19.408508259351979
 20
5.4395617461357837
 30
0.0
 11
-19.408508259351979
 21
5.4395617461357837
 31
0.0
  0
LINE
  5
53F44
  8
0
 62
     0
 10
-19.474799520088219
 20
5.3732704853995461
 30
0.0
 11
-19.474799520088219
 21
5.3732704853995461
 31
0.0
  0
LINE
  5
53F45
  8
0
 62
     0
 10
-19.541090780824462
 20
5.3069792246633067
 30
0.0
 11
-19.541090780824462
 21
5.3069792246633067
 31
0.0
  0
LINE
  5
53F46
  8
0
 62
     0
 10
-19.607382041560701
 20
5.2406879639270691
 30
0.0
 11
-19.607382041560701
 21
5.2406879639270691
 31
0.0
  0
LINE
  5
53F47
  8
0
 62
     0
 10
-19.67367330229694
 20
5.1743967031908298
 30
0.0
 11
-19.67367330229694
 21
5.1743967031908298
 31
0.0
  0
LINE
  5
53F48
  8
0
 62
     0
 10
-17.220896655056102
 20
7.6271733504316641
 30
0.0
 11
-17.220896655056102
 21
7.6271733504316641
 31
0.0
  0
LINE
  5
53F49
  8
0
 62
     0
 10
-17.287187915792341
 20
7.5608820896954256
 30
0.0
 11
-17.287187915792341
 21
7.5608820896954256
 31
0.0
  0
LINE
  5
53F4A
  8
0
 62
     0
 10
-17.35347917652858
 20
7.494590828959188
 30
0.0
 11
-17.35347917652858
 21
7.494590828959188
 31
0.0
  0
LINE
  5
53F4B
  8
0
 62
     0
 10
-17.41977043726482
 20
7.4282995682229487
 30
0.0
 11
-17.41977043726482
 21
7.4282995682229487
 31
0.0
  0
LINE
  5
53F4C
  8
0
 62
     0
 10
-17.486061698001059
 20
7.3620083074867111
 30
0.0
 11
-17.486061698001059
 21
7.3620083074867111
 31
0.0
  0
LINE
  5
53F4D
  8
0
 62
     0
 10
-17.552352958737298
 20
7.2957170467504717
 30
0.0
 11
-17.552352958737298
 21
7.2957170467504717
 31
0.0
  0
LINE
  5
53F4E
  8
0
 62
     0
 10
-17.618644219473541
 20
7.2294257860142341
 30
0.0
 11
-17.618644219473541
 21
7.2294257860142341
 31
0.0
  0
LINE
  5
53F4F
  8
0
 62
     0
 10
-19.73996456303318
 20
5.1081054424545904
 30
0.0
 11
-19.73996456303318
 21
5.1081054424545904
 31
0.0
  0
LINE
  5
53F50
  8
0
 62
     0
 10
-19.806255823769419
 20
5.0418141817183511
 30
0.0
 11
-19.806255823769419
 21
5.0418141817183511
 31
0.0
  0
LINE
  5
53F51
  8
0
 62
     0
 10
-19.872547084505658
 20
4.9755229209821126
 30
0.0
 11
-19.872547084505658
 21
4.9755229209821126
 31
0.0
  0
LINE
  5
53F52
  8
0
 62
     0
 10
-19.938838345241901
 20
4.9092316602458741
 30
0.0
 11
-19.938838345241901
 21
4.9092316602458741
 31
0.0
  0
LINE
  5
53F53
  8
0
 62
     0
 10
-20.005129605978141
 20
4.8429403995096356
 30
0.0
 11
-20.005129605978141
 21
4.8429403995096356
 31
0.0
  0
LINE
  5
53F54
  8
0
 62
     0
 10
-20.07142086671438
 20
4.776649138773398
 30
0.0
 11
-20.07142086671438
 21
4.776649138773398
 31
0.0
  0
LINE
  5
53F55
  8
0
 62
     0
 10
-20.137712127450619
 20
4.7103578780371587
 30
0.0
 11
-20.137712127450619
 21
4.7103578780371587
 31
0.0
  0
LINE
  5
53F56
  8
0
 62
     0
 10
-20.204003388186852
 20
4.6440666173009211
 30
0.0
 11
-20.204003388186852
 21
4.6440666173009211
 31
0.0
  0
LINE
  5
53F57
  8
0
 62
     0
 10
-17.850663632050381
 20
7.1299888949098742
 30
0.0
 11
-17.850663632050381
 21
7.1299888949098742
 31
0.0
  0
LINE
  5
53F58
  8
0
 62
     0
 10
-17.916954892786599
 20
7.0636976341736268
 30
0.0
 11
-17.916954892786599
 21
7.0636976341736268
 31
0.0
  0
LINE
  5
53F59
  8
0
 62
     0
 10
-17.983246153522838
 20
6.9974063734373892
 30
0.0
 11
-17.983246153522838
 21
6.9974063734373892
 31
0.0
  0
LINE
  5
53F5A
  8
0
 62
     0
 10
-18.049537414259081
 20
6.9311151127011499
 30
0.0
 11
-18.049537414259081
 21
6.9311151127011499
 31
0.0
  0
LINE
  5
53F5B
  8
0
 62
     0
 10
-18.115828674995321
 20
6.8648238519649123
 30
0.0
 11
-18.115828674995321
 21
6.8648238519649123
 31
0.0
  0
LINE
  5
53F5C
  8
0
 62
     0
 10
-18.18211993573156
 20
6.7985325912286729
 30
0.0
 11
-18.18211993573156
 21
6.7985325912286729
 31
0.0
  0
LINE
  5
53F5D
  8
0
 62
     0
 10
-18.248411196467799
 20
6.7322413304924353
 30
0.0
 11
-18.248411196467799
 21
6.7322413304924353
 31
0.0
  0
LINE
  5
53F5E
  8
0
 62
     0
 10
-18.314702457204039
 20
6.665950069756196
 30
0.0
 11
-18.314702457204039
 21
6.665950069756196
 31
0.0
  0
LINE
  5
53F5F
  8
0
 62
     0
 10
-18.380993717940282
 20
6.5996588090199584
 30
0.0
 11
-18.380993717940282
 21
6.5996588090199584
 31
0.0
  0
LINE
  5
53F60
  8
0
 62
     0
 10
-18.447284978676521
 20
6.533367548283719
 30
0.0
 11
-18.447284978676521
 21
6.533367548283719
 31
0.0
  0
LINE
  5
53F61
  8
0
 62
     0
 10
-18.51357623941276
 20
6.4670762875474814
 30
0.0
 11
-18.51357623941276
 21
6.4670762875474814
 31
0.0
  0
LINE
  5
53F62
  8
0
 62
     0
 10
-18.579867500149
 20
6.4007850268112421
 30
0.0
 11
-18.579867500149
 21
6.4007850268112421
 31
0.0
  0
LINE
  5
53F63
  8
0
 62
     0
 10
-18.646158760885239
 20
6.3344937660750036
 30
0.0
 11
-18.646158760885239
 21
6.3344937660750036
 31
0.0
  0
LINE
  5
53F64
  8
0
 62
     0
 10
-18.712450021621478
 20
6.2682025053387651
 30
0.0
 11
-18.712450021621478
 21
6.2682025053387651
 31
0.0
  0
LINE
  5
53F65
  8
0
 62
     0
 10
-18.778741282357721
 20
6.2019112446025266
 30
0.0
 11
-18.778741282357721
 21
6.2019112446025266
 31
0.0
  0
LINE
  5
53F66
  8
0
 62
     0
 10
-18.845032543093961
 20
6.135619983866289
 30
0.0
 11
-18.845032543093961
 21
6.135619983866289
 31
0.0
  0
LINE
  5
53F67
  8
0
 62
     0
 10
-18.9113238038302
 20
6.0693287231300497
 30
0.0
 11
-18.9113238038302
 21
6.0693287231300497
 31
0.0
  0
LINE
  5
53F68
  8
0
 62
     0
 10
-18.977615064566429
 20
6.0030374623938121
 30
0.0
 11
-18.977615064566429
 21
6.0030374623938121
 31
0.0
  0
LINE
  5
53F69
  8
0
 62
     0
 10
-19.043906325302672
 20
5.9367462016575727
 30
0.0
 11
-19.043906325302672
 21
5.9367462016575727
 31
0.0
  0
LINE
  5
53F6A
  8
0
 62
     0
 10
-19.110197586038911
 20
5.8704549409213351
 30
0.0
 11
-19.110197586038911
 21
5.8704549409213351
 31
0.0
  0
LINE
  5
53F6B
  8
0
 62
     0
 10
-19.17648884677515
 20
5.8041636801850958
 30
0.0
 11
-19.17648884677515
 21
5.8041636801850958
 31
0.0
  0
LINE
  5
53F6C
  8
0
 62
     0
 10
-19.24278010751139
 20
5.7378724194488582
 30
0.0
 11
-19.24278010751139
 21
5.7378724194488582
 31
0.0
  0
LINE
  5
53F6D
  8
0
 62
     0
 10
-19.309071368247629
 20
5.6715811587126188
 30
0.0
 11
-19.309071368247629
 21
5.6715811587126188
 31
0.0
  0
LINE
  5
53F6E
  8
0
 62
     0
 10
-19.375362628983869
 20
5.6052898979763812
 30
0.0
 11
-19.375362628983869
 21
5.6052898979763812
 31
0.0
  0
LINE
  5
53F6F
  8
0
 62
     0
 10
-19.441653889720111
 20
5.5389986372401419
 30
0.0
 11
-19.441653889720111
 21
5.5389986372401419
 31
0.0
  0
LINE
  5
53F70
  8
0
 62
     0
 10
-19.507945150456351
 20
5.4727073765039043
 30
0.0
 11
-19.507945150456351
 21
5.4727073765039043
 31
0.0
  0
LINE
  5
53F71
  8
0
 62
     0
 10
-19.57423641119259
 20
5.4064161157676649
 30
0.0
 11
-19.57423641119259
 21
5.4064161157676649
 31
0.0
  0
LINE
  5
53F72
  8
0
 62
     0
 10
-19.64052767192883
 20
5.3401248550314273
 30
0.0
 11
-19.64052767192883
 21
5.3401248550314273
 31
0.0
  0
LINE
  5
53F73
  8
0
 62
     0
 10
-19.706818932665069
 20
5.2738335942951879
 30
0.0
 11
-19.706818932665069
 21
5.2738335942951879
 31
0.0
  0
LINE
  5
53F74
  8
0
 62
     0
 10
-19.773110193401308
 20
5.2075423335589504
 30
0.0
 11
-19.773110193401308
 21
5.2075423335589504
 31
0.0
  0
LINE
  5
53F75
  8
0
 62
     0
 10
-17.320333546160459
 20
7.6603189807997838
 30
0.0
 11
-17.320333546160459
 21
7.6603189807997838
 31
0.0
  0
LINE
  5
53F76
  8
0
 62
     0
 10
-17.386624806896702
 20
7.5940277200635462
 30
0.0
 11
-17.386624806896702
 21
7.5940277200635462
 31
0.0
  0
LINE
  5
53F77
  8
0
 62
     0
 10
-17.452916067632941
 20
7.5277364593273068
 30
0.0
 11
-17.452916067632941
 21
7.5277364593273068
 31
0.0
  0
LINE
  5
53F78
  8
0
 62
     0
 10
-17.51920732836918
 20
7.4614451985910692
 30
0.0
 11
-17.51920732836918
 21
7.4614451985910692
 31
0.0
  0
LINE
  5
53F79
  8
0
 62
     0
 10
-17.58549858910542
 20
7.3951539378548299
 30
0.0
 11
-17.58549858910542
 21
7.3951539378548299
 31
0.0
  0
LINE
  5
53F7A
  8
0
 62
     0
 10
-17.651789849841659
 20
7.3288626771185923
 30
0.0
 11
-17.651789849841659
 21
7.3288626771185923
 31
0.0
  0
LINE
  5
53F7B
  8
0
 62
     0
 10
-17.718081110577899
 20
7.2625714163823529
 30
0.0
 11
-17.718081110577899
 21
7.2625714163823529
 31
0.0
  0
LINE
  5
53F7C
  8
0
 62
     0
 10
-19.839401454137541
 20
5.1412510728227101
 30
0.0
 11
-19.839401454137541
 21
5.1412510728227101
 31
0.0
  0
LINE
  5
53F7D
  8
0
 62
     0
 10
-19.90569271487378
 20
5.0749598120864707
 30
0.0
 11
-19.90569271487378
 21
5.0749598120864707
 31
0.0
  0
LINE
  5
53F7E
  8
0
 62
     0
 10
-19.971983975610019
 20
5.0086685513502331
 30
0.0
 11
-19.971983975610019
 21
5.0086685513502331
 31
0.0
  0
LINE
  5
53F7F
  8
0
 62
     0
 10
-20.038275236346259
 20
4.9423772906139938
 30
0.0
 11
-20.038275236346259
 21
4.9423772906139938
 31
0.0
  0
LINE
  5
53F80
  8
0
 62
     0
 10
-20.104566497082502
 20
4.8760860298777562
 30
0.0
 11
-20.104566497082502
 21
4.8760860298777562
 31
0.0
  0
LINE
  5
53F81
  8
0
 62
     0
 10
-20.170857757818741
 20
4.8097947691415168
 30
0.0
 11
-20.170857757818741
 21
4.8097947691415168
 31
0.0
  0
LINE
  5
53F82
  8
0
 62
     0
 10
-20.23714901855498
 20
4.7435035084052792
 30
0.0
 11
-20.23714901855498
 21
4.7435035084052792
 31
0.0
  0
LINE
  5
53F83
  8
0
 62
     0
 10
-17.950100523154742
 20
7.1631345252779974
 30
0.0
 11
-17.950100523154742
 21
7.1631345252779974
 31
0.0
  0
LINE
  5
53F84
  8
0
 62
     0
 10
-18.01639178389096
 20
7.0968432645417474
 30
0.0
 11
-18.01639178389096
 21
7.0968432645417474
 31
0.0
  0
LINE
  5
53F85
  8
0
 62
     0
 10
-18.082683044627199
 20
7.030552003805508
 30
0.0
 11
-18.082683044627199
 21
7.030552003805508
 31
0.0
  0
LINE
  5
53F86
  8
0
 62
     0
 10
-18.148974305363438
 20
6.9642607430692696
 30
0.0
 11
-18.148974305363438
 21
6.9642607430692696
 31
0.0
  0
LINE
  5
53F87
  8
0
 62
     0
 10
-18.215265566099681
 20
6.8979694823330311
 30
0.0
 11
-18.215265566099681
 21
6.8979694823330311
 31
0.0
  0
LINE
  5
53F88
  8
0
 62
     0
 10
-18.281556826835921
 20
6.8316782215967926
 30
0.0
 11
-18.281556826835921
 21
6.8316782215967926
 31
0.0
  0
LINE
  5
53F89
  8
0
 62
     0
 10
-18.34784808757216
 20
6.765386960860555
 30
0.0
 11
-18.34784808757216
 21
6.765386960860555
 31
0.0
  0
LINE
  5
53F8A
  8
0
 62
     0
 10
-18.414139348308389
 20
6.6990957001243157
 30
0.0
 11
-18.414139348308389
 21
6.6990957001243157
 31
0.0
  0
LINE
  5
53F8B
  8
0
 62
     0
 10
-18.480430609044632
 20
6.6328044393880781
 30
0.0
 11
-18.480430609044632
 21
6.6328044393880781
 31
0.0
  0
LINE
  5
53F8C
  8
0
 62
     0
 10
-18.546721869780871
 20
6.5665131786518387
 30
0.0
 11
-18.546721869780871
 21
6.5665131786518387
 31
0.0
  0
LINE
  5
53F8D
  8
0
 62
     0
 10
-18.61301313051711
 20
6.5002219179156011
 30
0.0
 11
-18.61301313051711
 21
6.5002219179156011
 31
0.0
  0
LINE
  5
53F8E
  8
0
 62
     0
 10
-18.67930439125335
 20
6.4339306571793617
 30
0.0
 11
-18.67930439125335
 21
6.4339306571793617
 31
0.0
  0
LINE
  5
53F8F
  8
0
 62
     0
 10
-18.745595651989589
 20
6.3676393964431242
 30
0.0
 11
-18.745595651989589
 21
6.3676393964431242
 31
0.0
  0
LINE
  5
53F90
  8
0
 62
     0
 10
-18.811886912725829
 20
6.3013481357068848
 30
0.0
 11
-18.811886912725829
 21
6.3013481357068848
 31
0.0
  0
LINE
  5
53F91
  8
0
 62
     0
 10
-18.878178173462071
 20
6.2350568749706472
 30
0.0
 11
-18.878178173462071
 21
6.2350568749706472
 31
0.0
  0
LINE
  5
53F92
  8
0
 62
     0
 10
-18.944469434198311
 20
6.1687656142344078
 30
0.0
 11
-18.944469434198311
 21
6.1687656142344078
 31
0.0
  0
LINE
  5
53F93
  8
0
 62
     0
 10
-19.01076069493455
 20
6.1024743534981702
 30
0.0
 11
-19.01076069493455
 21
6.1024743534981702
 31
0.0
  0
LINE
  5
53F94
  8
0
 62
     0
 10
-19.07705195567079
 20
6.0361830927619309
 30
0.0
 11
-19.07705195567079
 21
6.0361830927619309
 31
0.0
  0
LINE
  5
53F95
  8
0
 62
     0
 10
-19.143343216407029
 20
5.9698918320256933
 30
0.0
 11
-19.143343216407029
 21
5.9698918320256933
 31
0.0
  0
LINE
  5
53F96
  8
0
 62
     0
 10
-19.209634477143268
 20
5.9036005712894539
 30
0.0
 11
-19.209634477143268
 21
5.9036005712894539
 31
0.0
  0
LINE
  5
53F97
  8
0
 62
     0
 10
-19.275925737879511
 20
5.8373093105532163
 30
0.0
 11
-19.275925737879511
 21
5.8373093105532163
 31
0.0
  0
LINE
  5
53F98
  8
0
 62
     0
 10
-19.342216998615751
 20
5.771018049816977
 30
0.0
 11
-19.342216998615751
 21
5.771018049816977
 31
0.0
  0
LINE
  5
53F99
  8
0
 62
     0
 10
-19.408508259351979
 20
5.7047267890807394
 30
0.0
 11
-19.408508259351979
 21
5.7047267890807394
 31
0.0
  0
LINE
  5
53F9A
  8
0
 62
     0
 10
-19.474799520088219
 20
5.6384355283445
 30
0.0
 11
-19.474799520088219
 21
5.6384355283445
 31
0.0
  0
LINE
  5
53F9B
  8
0
 62
     0
 10
-19.541090780824462
 20
5.5721442676082624
 30
0.0
 11
-19.541090780824462
 21
5.5721442676082624
 31
0.0
  0
LINE
  5
53F9C
  8
0
 62
     0
 10
-19.607382041560701
 20
5.5058530068720231
 30
0.0
 11
-19.607382041560701
 21
5.5058530068720231
 31
0.0
  0
LINE
  5
53F9D
  8
0
 62
     0
 10
-19.67367330229694
 20
5.4395617461357846
 30
0.0
 11
-19.67367330229694
 21
5.4395617461357846
 31
0.0
  0
LINE
  5
53F9E
  8
0
 62
     0
 10
-19.73996456303318
 20
5.3732704853995461
 30
0.0
 11
-19.73996456303318
 21
5.3732704853995461
 31
0.0
  0
LINE
  5
53F9F
  8
0
 62
     0
 10
-19.806255823769419
 20
5.3069792246633076
 30
0.0
 11
-19.806255823769419
 21
5.3069792246633076
 31
0.0
  0
LINE
  5
53FA0
  8
0
 62
     0
 10
-19.872547084505658
 20
5.24068796392707
 30
0.0
 11
-19.872547084505658
 21
5.24068796392707
 31
0.0
  0
LINE
  5
53FA1
  8
0
 62
     0
 10
-17.41977043726482
 20
7.6934646111679044
 30
0.0
 11
-17.41977043726482
 21
7.6934646111679044
 31
0.0
  0
LINE
  5
53FA2
  8
0
 62
     0
 10
-17.486061698001059
 20
7.627173350431665
 30
0.0
 11
-17.486061698001059
 21
7.627173350431665
 31
0.0
  0
LINE
  5
53FA3
  8
0
 62
     0
 10
-17.552352958737298
 20
7.5608820896954274
 30
0.0
 11
-17.552352958737298
 21
7.5608820896954274
 31
0.0
  0
LINE
  5
53FA4
  8
0
 62
     0
 10
-17.618644219473541
 20
7.494590828959188
 30
0.0
 11
-17.618644219473541
 21
7.494590828959188
 31
0.0
  0
LINE
  5
53FA5
  8
0
 62
     0
 10
-17.684935480209781
 20
7.4282995682229496
 30
0.0
 11
-17.684935480209781
 21
7.4282995682229496
 31
0.0
  0
LINE
  5
53FA6
  8
0
 62
     0
 10
-17.75122674094602
 20
7.3620083074867111
 30
0.0
 11
-17.75122674094602
 21
7.3620083074867111
 31
0.0
  0
LINE
  5
53FA7
  8
0
 62
     0
 10
-17.817518001682259
 20
7.2957170467504726
 30
0.0
 11
-17.817518001682259
 21
7.2957170467504726
 31
0.0
  0
LINE
  5
53FA8
  8
0
 62
     0
 10
-19.938838345241901
 20
5.1743967031908262
 30
0.0
 11
-19.938838345241901
 21
5.1743967031908262
 31
0.0
  0
LINE
  5
53FA9
  8
0
 62
     0
 10
-20.005129605978141
 20
5.1081054424545869
 30
0.0
 11
-20.005129605978141
 21
5.1081054424545869
 31
0.0
  0
LINE
  5
53FAA
  8
0
 62
     0
 10
-20.07142086671438
 20
5.0418141817183493
 30
0.0
 11
-20.07142086671438
 21
5.0418141817183493
 31
0.0
  0
LINE
  5
53FAB
  8
0
 62
     0
 10
-20.137712127450619
 20
4.9755229209821099
 30
0.0
 11
-20.137712127450619
 21
4.9755229209821099
 31
0.0
  0
LINE
  5
53FAC
  8
0
 62
     0
 10
-20.204003388186852
 20
4.9092316602458723
 30
0.0
 11
-20.204003388186852
 21
4.9092316602458723
 31
0.0
  0
LINE
  5
53FAD
  8
0
 62
     0
 10
-20.270294648923102
 20
4.842940399509633
 30
0.0
 11
-20.270294648923102
 21
4.842940399509633
 31
0.0
  0
LINE
  5
53FAE
  8
0
 62
     0
 10
-20.33658590965933
 20
4.7766491387733954
 30
0.0
 11
-20.33658590965933
 21
4.7766491387733954
 31
0.0
  0
LINE
  5
53FAF
  8
0
 62
     0
 10
-18.049537414259088
 20
7.1962801556461109
 30
0.0
 11
-18.049537414259088
 21
7.1962801556461109
 31
0.0
  0
LINE
  5
53FB0
  8
0
 62
     0
 10
-18.115828674995321
 20
7.1299888949098609
 30
0.0
 11
-18.115828674995321
 21
7.1299888949098609
 31
0.0
  0
LINE
  5
53FB1
  8
0
 62
     0
 10
-18.18211993573156
 20
7.0636976341736233
 30
0.0
 11
-18.18211993573156
 21
7.0636976341736233
 31
0.0
  0
LINE
  5
53FB2
  8
0
 62
     0
 10
-18.248411196467799
 20
6.9974063734373839
 30
0.0
 11
-18.248411196467799
 21
6.9974063734373839
 31
0.0
  0
LINE
  5
53FB3
  8
0
 62
     0
 10
-18.314702457204039
 20
6.9311151127011463
 30
0.0
 11
-18.314702457204039
 21
6.9311151127011463
 31
0.0
  0
LINE
  5
53FB4
  8
0
 62
     0
 10
-18.380993717940282
 20
6.864823851964907
 30
0.0
 11
-18.380993717940282
 21
6.864823851964907
 31
0.0
  0
LINE
  5
53FB5
  8
0
 62
     0
 10
-18.447284978676521
 20
6.7985325912286694
 30
0.0
 11
-18.447284978676521
 21
6.7985325912286694
 31
0.0
  0
LINE
  5
53FB6
  8
0
 62
     0
 10
-18.51357623941275
 20
6.73224133049243
 30
0.0
 11
-18.51357623941275
 21
6.73224133049243
 31
0.0
  0
LINE
  5
53FB7
  8
0
 62
     0
 10
-18.579867500148989
 20
6.6659500697561924
 30
0.0
 11
-18.579867500148989
 21
6.6659500697561924
 31
0.0
  0
LINE
  5
53FB8
  8
0
 62
     0
 10
-18.646158760885228
 20
6.5996588090199531
 30
0.0
 11
-18.646158760885228
 21
6.5996588090199531
 31
0.0
  0
LINE
  5
53FB9
  8
0
 62
     0
 10
-18.712450021621471
 20
6.5333675482837146
 30
0.0
 11
-18.712450021621471
 21
6.5333675482837146
 31
0.0
  0
LINE
  5
53FBA
  8
0
 62
     0
 10
-18.778741282357711
 20
6.4670762875474761
 30
0.0
 11
-18.778741282357711
 21
6.4670762875474761
 31
0.0
  0
LINE
  5
53FBB
  8
0
 62
     0
 10
-18.84503254309395
 20
6.4007850268112376
 30
0.0
 11
-18.84503254309395
 21
6.4007850268112376
 31
0.0
  0
LINE
  5
53FBC
  8
0
 62
     0
 10
-18.911323803830189
 20
6.334493766075
 30
0.0
 11
-18.911323803830189
 21
6.334493766075
 31
0.0
  0
LINE
  5
53FBD
  8
0
 62
     0
 10
-18.977615064566429
 20
6.2682025053387607
 30
0.0
 11
-18.977615064566429
 21
6.2682025053387607
 31
0.0
  0
LINE
  5
53FBE
  8
0
 62
     0
 10
-19.043906325302672
 20
6.2019112446025231
 30
0.0
 11
-19.043906325302672
 21
6.2019112446025231
 31
0.0
  0
LINE
  5
53FBF
  8
0
 62
     0
 10
-19.110197586038911
 20
6.1356199838662837
 30
0.0
 11
-19.110197586038911
 21
6.1356199838662837
 31
0.0
  0
LINE
  5
53FC0
  8
0
 62
     0
 10
-19.17648884677515
 20
6.0693287231300461
 30
0.0
 11
-19.17648884677515
 21
6.0693287231300461
 31
0.0
  0
LINE
  5
53FC1
  8
0
 62
     0
 10
-19.24278010751139
 20
6.0030374623938068
 30
0.0
 11
-19.24278010751139
 21
6.0030374623938068
 31
0.0
  0
LINE
  5
53FC2
  8
0
 62
     0
 10
-19.309071368247629
 20
5.9367462016575692
 30
0.0
 11
-19.309071368247629
 21
5.9367462016575692
 31
0.0
  0
LINE
  5
53FC3
  8
0
 62
     0
 10
-19.375362628983869
 20
5.8704549409213298
 30
0.0
 11
-19.375362628983869
 21
5.8704549409213298
 31
0.0
  0
LINE
  5
53FC4
  8
0
 62
     0
 10
-19.441653889720111
 20
5.8041636801850922
 30
0.0
 11
-19.441653889720111
 21
5.8041636801850922
 31
0.0
  0
LINE
  5
53FC5
  8
0
 62
     0
 10
-19.50794515045634
 20
5.7378724194488528
 30
0.0
 11
-19.50794515045634
 21
5.7378724194488528
 31
0.0
  0
LINE
  5
53FC6
  8
0
 62
     0
 10
-19.57423641119259
 20
5.6715811587126153
 30
0.0
 11
-19.57423641119259
 21
5.6715811587126153
 31
0.0
  0
LINE
  5
53FC7
  8
0
 62
     0
 10
-19.640527671928819
 20
5.6052898979763759
 30
0.0
 11
-19.640527671928819
 21
5.6052898979763759
 31
0.0
  0
LINE
  5
53FC8
  8
0
 62
     0
 10
-19.706818932665058
 20
5.5389986372401383
 30
0.0
 11
-19.706818932665058
 21
5.5389986372401383
 31
0.0
  0
LINE
  5
53FC9
  8
0
 62
     0
 10
-19.773110193401301
 20
5.4727073765038989
 30
0.0
 11
-19.773110193401301
 21
5.4727073765038989
 31
0.0
  0
LINE
  5
53FCA
  8
0
 62
     0
 10
-19.839401454137541
 20
5.4064161157676613
 30
0.0
 11
-19.839401454137541
 21
5.4064161157676613
 31
0.0
  0
LINE
  5
53FCB
  8
0
 62
     0
 10
-19.90569271487378
 20
5.340124855031422
 30
0.0
 11
-19.90569271487378
 21
5.340124855031422
 31
0.0
  0
LINE
  5
53FCC
  8
0
 62
     0
 10
-19.971983975610019
 20
5.2738335942951844
 30
0.0
 11
-19.971983975610019
 21
5.2738335942951844
 31
0.0
  0
LINE
  5
53FCD
  8
0
 62
     0
 10
-17.452916067632941
 20
7.7929015022722572
 30
0.0
 11
-17.452916067632941
 21
7.7929015022722572
 31
0.0
  0
LINE
  5
53FCE
  8
0
 62
     0
 10
-17.51920732836918
 20
7.7266102415360178
 30
0.0
 11
-17.51920732836918
 21
7.7266102415360178
 31
0.0
  0
LINE
  5
53FCF
  8
0
 62
     0
 10
-17.58549858910542
 20
7.6603189807997802
 30
0.0
 11
-17.58549858910542
 21
7.6603189807997802
 31
0.0
  0
LINE
  5
53FD0
  8
0
 62
     0
 10
-17.651789849841659
 20
7.5940277200635409
 30
0.0
 11
-17.651789849841659
 21
7.5940277200635409
 31
0.0
  0
LINE
  5
53FD1
  8
0
 62
     0
 10
-17.718081110577899
 20
7.5277364593273033
 30
0.0
 11
-17.718081110577899
 21
7.5277364593273033
 31
0.0
  0
LINE
  5
53FD2
  8
0
 62
     0
 10
-17.784372371314142
 20
7.4614451985910639
 30
0.0
 11
-17.784372371314142
 21
7.4614451985910639
 31
0.0
  0
LINE
  5
53FD3
  8
0
 62
     0
 10
-17.850663632050381
 20
7.3951539378548263
 30
0.0
 11
-17.850663632050381
 21
7.3951539378548263
 31
0.0
  0
LINE
  5
53FD4
  8
0
 62
     0
 10
-17.91695489278662
 20
7.328862677118587
 30
0.0
 11
-17.91695489278662
 21
7.328862677118587
 31
0.0
  0
LINE
  5
53FD5
  8
0
 62
     0
 10
-20.038275236346259
 20
5.207542333558945
 30
0.0
 11
-20.038275236346259
 21
5.207542333558945
 31
0.0
  0
LINE
  5
53FD6
  8
0
 62
     0
 10
-20.104566497082491
 20
5.1412510728227057
 30
0.0
 11
-20.104566497082491
 21
5.1412510728227057
 31
0.0
  0
LINE
  5
53FD7
  8
0
 62
     0
 10
-20.170857757818741
 20
5.0749598120864681
 30
0.0
 11
-20.170857757818741
 21
5.0749598120864681
 31
0.0
  0
LINE
  5
53FD8
  8
0
 62
     0
 10
-20.23714901855497
 20
5.0086685513502287
 30
0.0
 11
-20.23714901855497
 21
5.0086685513502287
 31
0.0
  0
LINE
  5
53FD9
  8
0
 62
     0
 10
-20.303440279291209
 20
4.9423772906139911
 30
0.0
 11
-20.303440279291209
 21
4.9423772906139911
 31
0.0
  0
LINE
  5
53FDA
  8
0
 62
     0
 10
-20.369731540027448
 20
4.8760860298777517
 30
0.0
 11
-20.369731540027448
 21
4.8760860298777517
 31
0.0
  0
LINE
  5
53FDB
  8
0
 62
     0
 10
-20.436022800763691
 20
4.8097947691415142
 30
0.0
 11
-20.436022800763691
 21
4.8097947691415142
 31
0.0
  0
LINE
  5
53FDC
  8
0
 62
     0
 10
-18.148974305363449
 20
7.2294257860142332
 30
0.0
 11
-18.148974305363449
 21
7.2294257860142332
 31
0.0
  0
LINE
  5
53FDD
  8
0
 62
     0
 10
-18.215265566099681
 20
7.1631345252779868
 30
0.0
 11
-18.215265566099681
 21
7.1631345252779868
 31
0.0
  0
LINE
  5
53FDE
  8
0
 62
     0
 10
-18.281556826835921
 20
7.0968432645417492
 30
0.0
 11
-18.281556826835921
 21
7.0968432645417492
 31
0.0
  0
LINE
  5
53FDF
  8
0
 62
     0
 10
-18.34784808757216
 20
7.0305520038055098
 30
0.0
 11
-18.34784808757216
 21
7.0305520038055098
 31
0.0
  0
LINE
  5
53FE0
  8
0
 62
     0
 10
-18.414139348308389
 20
6.9642607430692722
 30
0.0
 11
-18.414139348308389
 21
6.9642607430692722
 31
0.0
  0
LINE
  5
53FE1
  8
0
 62
     0
 10
-18.480430609044632
 20
6.8979694823330329
 30
0.0
 11
-18.480430609044632
 21
6.8979694823330329
 31
0.0
  0
LINE
  5
53FE2
  8
0
 62
     0
 10
-18.546721869780871
 20
6.8316782215967953
 30
0.0
 11
-18.546721869780871
 21
6.8316782215967953
 31
0.0
  0
LINE
  5
53FE3
  8
0
 62
     0
 10
-18.61301313051711
 20
6.7653869608605559
 30
0.0
 11
-18.61301313051711
 21
6.7653869608605559
 31
0.0
  0
LINE
  5
53FE4
  8
0
 62
     0
 10
-18.67930439125335
 20
6.6990957001243183
 30
0.0
 11
-18.67930439125335
 21
6.6990957001243183
 31
0.0
  0
LINE
  5
53FE5
  8
0
 62
     0
 10
-18.745595651989589
 20
6.632804439388079
 30
0.0
 11
-18.745595651989589
 21
6.632804439388079
 31
0.0
  0
LINE
  5
53FE6
  8
0
 62
     0
 10
-18.811886912725829
 20
6.5665131786518414
 30
0.0
 11
-18.811886912725829
 21
6.5665131786518414
 31
0.0
  0
LINE
  5
53FE7
  8
0
 62
     0
 10
-18.878178173462071
 20
6.500221917915602
 30
0.0
 11
-18.878178173462071
 21
6.500221917915602
 31
0.0
  0
LINE
  5
53FE8
  8
0
 62
     0
 10
-18.944469434198311
 20
6.4339306571793644
 30
0.0
 11
-18.944469434198311
 21
6.4339306571793644
 31
0.0
  0
LINE
  5
53FE9
  8
0
 62
     0
 10
-19.01076069493455
 20
6.367639396443125
 30
0.0
 11
-19.01076069493455
 21
6.367639396443125
 31
0.0
  0
LINE
  5
53FEA
  8
0
 62
     0
 10
-19.07705195567079
 20
6.3013481357068866
 30
0.0
 11
-19.07705195567079
 21
6.3013481357068866
 31
0.0
  0
LINE
  5
53FEB
  8
0
 62
     0
 10
-19.143343216407029
 20
6.2350568749706481
 30
0.0
 11
-19.143343216407029
 21
6.2350568749706481
 31
0.0
  0
LINE
  5
53FEC
  8
0
 62
     0
 10
-19.209634477143268
 20
6.1687656142344096
 30
0.0
 11
-19.209634477143268
 21
6.1687656142344096
 31
0.0
  0
LINE
  5
53FED
  8
0
 62
     0
 10
-19.275925737879511
 20
6.102474353498172
 30
0.0
 11
-19.275925737879511
 21
6.102474353498172
 31
0.0
  0
LINE
  5
53FEE
  8
0
 62
     0
 10
-19.342216998615751
 20
6.0361830927619327
 30
0.0
 11
-19.342216998615751
 21
6.0361830927619327
 31
0.0
  0
LINE
  5
53FEF
  8
0
 62
     0
 10
-19.408508259351979
 20
5.9698918320256951
 30
0.0
 11
-19.408508259351979
 21
5.9698918320256951
 31
0.0
  0
LINE
  5
53FF0
  8
0
 62
     0
 10
-19.474799520088219
 20
5.9036005712894557
 30
0.0
 11
-19.474799520088219
 21
5.9036005712894557
 31
0.0
  0
LINE
  5
53FF1
  8
0
 62
     0
 10
-19.541090780824462
 20
5.8373093105532181
 30
0.0
 11
-19.541090780824462
 21
5.8373093105532181
 31
0.0
  0
LINE
  5
53FF2
  8
0
 62
     0
 10
-19.607382041560701
 20
5.7710180498169787
 30
0.0
 11
-19.607382041560701
 21
5.7710180498169787
 31
0.0
  0
LINE
  5
53FF3
  8
0
 62
     0
 10
-19.67367330229694
 20
5.7047267890807412
 30
0.0
 11
-19.67367330229694
 21
5.7047267890807412
 31
0.0
  0
LINE
  5
53FF4
  8
0
 62
     0
 10
-19.73996456303318
 20
5.6384355283445018
 30
0.0
 11
-19.73996456303318
 21
5.6384355283445018
 31
0.0
  0
LINE
  5
53FF5
  8
0
 62
     0
 10
-19.806255823769419
 20
5.5721442676082642
 30
0.0
 11
-19.806255823769419
 21
5.5721442676082642
 31
0.0
  0
LINE
  5
53FF6
  8
0
 62
     0
 10
-19.872547084505658
 20
5.5058530068720248
 30
0.0
 11
-19.872547084505658
 21
5.5058530068720248
 31
0.0
  0
LINE
  5
53FF7
  8
0
 62
     0
 10
-19.938838345241901
 20
5.4395617461357872
 30
0.0
 11
-19.938838345241901
 21
5.4395617461357872
 31
0.0
  0
LINE
  5
53FF8
  8
0
 62
     0
 10
-20.005129605978141
 20
5.3732704853995479
 30
0.0
 11
-20.005129605978141
 21
5.3732704853995479
 31
0.0
  0
LINE
  5
53FF9
  8
0
 62
     0
 10
-17.552352958737298
 20
7.8260471326403813
 30
0.0
 11
-17.552352958737298
 21
7.8260471326403813
 31
0.0
  0
LINE
  5
53FFA
  8
0
 62
     0
 10
-17.618644219473541
 20
7.759755871904142
 30
0.0
 11
-17.618644219473541
 21
7.759755871904142
 31
0.0
  0
LINE
  5
53FFB
  8
0
 62
     0
 10
-17.684935480209781
 20
7.6934646111679044
 30
0.0
 11
-17.684935480209781
 21
7.6934646111679044
 31
0.0
  0
LINE
  5
53FFC
  8
0
 62
     0
 10
-17.75122674094602
 20
7.627173350431665
 30
0.0
 11
-17.75122674094602
 21
7.627173350431665
 31
0.0
  0
LINE
  5
53FFD
  8
0
 62
     0
 10
-17.817518001682259
 20
7.5608820896954274
 30
0.0
 11
-17.817518001682259
 21
7.5608820896954274
 31
0.0
  0
LINE
  5
53FFE
  8
0
 62
     0
 10
-17.883809262418499
 20
7.494590828959188
 30
0.0
 11
-17.883809262418499
 21
7.494590828959188
 31
0.0
  0
LINE
  5
53FFF
  8
0
 62
     0
 10
-17.950100523154742
 20
7.4282995682229496
 30
0.0
 11
-17.950100523154742
 21
7.4282995682229496
 31
0.0
  0
LINE
  5
54000
  8
0
 62
     0
 10
-20.07142086671438
 20
5.306979224663305
 30
0.0
 11
-20.07142086671438
 21
5.306979224663305
 31
0.0
  0
LINE
  5
54001
  8
0
 62
     0
 10
-20.137712127450619
 20
5.2406879639270674
 30
0.0
 11
-20.137712127450619
 21
5.2406879639270674
 31
0.0
  0
LINE
  5
54002
  8
0
 62
     0
 10
-20.204003388186852
 20
5.174396703190828
 30
0.0
 11
-20.204003388186852
 21
5.174396703190828
 31
0.0
  0
LINE
  5
54003
  8
0
 62
     0
 10
-20.270294648923102
 20
5.1081054424545904
 30
0.0
 11
-20.270294648923102
 21
5.1081054424545904
 31
0.0
  0
LINE
  5
54004
  8
0
 62
     0
 10
-20.33658590965933
 20
5.0418141817183511
 30
0.0
 11
-20.33658590965933
 21
5.0418141817183511
 31
0.0
  0
LINE
  5
54005
  8
0
 62
     0
 10
-20.40287717039557
 20
4.9755229209821126
 30
0.0
 11
-20.40287717039557
 21
4.9755229209821126
 31
0.0
  0
LINE
  5
54006
  8
0
 62
     0
 10
-20.469168431131809
 20
4.9092316602458741
 30
0.0
 11
-20.469168431131809
 21
4.9092316602458741
 31
0.0
  0
LINE
  5
54007
  8
0
 62
     0
 10
-20.535459691868049
 20
4.8429403995096356
 30
0.0
 11
-20.535459691868049
 21
4.8429403995096356
 31
0.0
  0
LINE
  5
54008
  8
0
 62
     0
 10
-18.182119935731571
 20
7.3288626771185941
 30
0.0
 11
-18.182119935731571
 21
7.3288626771185941
 31
0.0
  0
LINE
  5
54009
  8
0
 62
     0
 10
-18.248411196467789
 20
7.2625714163823449
 30
0.0
 11
-18.248411196467789
 21
7.2625714163823449
 31
0.0
  0
LINE
  5
5400A
  8
0
 62
     0
 10
-18.314702457204032
 20
7.1962801556461073
 30
0.0
 11
-18.314702457204032
 21
7.1962801556461073
 31
0.0
  0
LINE
  5
5400B
  8
0
 62
     0
 10
-18.380993717940271
 20
7.129988894909868
 30
0.0
 11
-18.380993717940271
 21
7.129988894909868
 31
0.0
  0
LINE
  5
5400C
  8
0
 62
     0
 10
-18.44728497867651
 20
7.0636976341736304
 30
0.0
 11
-18.44728497867651
 21
7.0636976341736304
 31
0.0
  0
LINE
  5
5400D
  8
0
 62
     0
 10
-18.51357623941275
 20
6.997406373437391
 30
0.0
 11
-18.51357623941275
 21
6.997406373437391
 31
0.0
  0
LINE
  5
5400E
  8
0
 62
     0
 10
-18.579867500148989
 20
6.9311151127011534
 30
0.0
 11
-18.579867500148989
 21
6.9311151127011534
 31
0.0
  0
LINE
  5
5400F
  8
0
 62
     0
 10
-18.646158760885228
 20
6.8648238519649141
 30
0.0
 11
-18.646158760885228
 21
6.8648238519649141
 31
0.0
  0
LINE
  5
54010
  8
0
 62
     0
 10
-18.712450021621471
 20
6.7985325912286756
 30
0.0
 11
-18.712450021621471
 21
6.7985325912286756
 31
0.0
  0
LINE
  5
54011
  8
0
 62
     0
 10
-18.778741282357711
 20
6.732241330492438
 30
0.0
 11
-18.778741282357711
 21
6.732241330492438
 31
0.0
  0
LINE
  5
54012
  8
0
 62
     0
 10
-18.84503254309395
 20
6.6659500697561986
 30
0.0
 11
-18.84503254309395
 21
6.6659500697561986
 31
0.0
  0
LINE
  5
54013
  8
0
 62
     0
 10
-18.911323803830189
 20
6.599658809019961
 30
0.0
 11
-18.911323803830189
 21
6.599658809019961
 31
0.0
  0
LINE
  5
54014
  8
0
 62
     0
 10
-18.977615064566429
 20
6.5333675482837217
 30
0.0
 11
-18.977615064566429
 21
6.5333675482837217
 31
0.0
  0
LINE
  5
54015
  8
0
 62
     0
 10
-19.043906325302672
 20
6.4670762875474841
 30
0.0
 11
-19.043906325302672
 21
6.4670762875474841
 31
0.0
  0
LINE
  5
54016
  8
0
 62
     0
 10
-19.110197586038911
 20
6.4007850268112447
 30
0.0
 11
-19.110197586038911
 21
6.4007850268112447
 31
0.0
  0
LINE
  5
54017
  8
0
 62
     0
 10
-19.17648884677515
 20
6.3344937660750071
 30
0.0
 11
-19.17648884677515
 21
6.3344937660750071
 31
0.0
  0
LINE
  5
54018
  8
0
 62
     0
 10
-19.242780107511379
 20
6.2682025053387678
 30
0.0
 11
-19.242780107511379
 21
6.2682025053387678
 31
0.0
  0
LINE
  5
54019
  8
0
 62
     0
 10
-19.309071368247618
 20
6.2019112446025302
 30
0.0
 11
-19.309071368247618
 21
6.2019112446025302
 31
0.0
  0
LINE
  5
5401A
  8
0
 62
     0
 10
-19.375362628983861
 20
6.1356199838662908
 30
0.0
 11
-19.375362628983861
 21
6.1356199838662908
 31
0.0
  0
LINE
  5
5401B
  8
0
 62
     0
 10
-19.441653889720101
 20
6.0693287231300532
 30
0.0
 11
-19.441653889720101
 21
6.0693287231300532
 31
0.0
  0
LINE
  5
5401C
  8
0
 62
     0
 10
-19.50794515045634
 20
6.0030374623938139
 30
0.0
 11
-19.50794515045634
 21
6.0030374623938139
 31
0.0
  0
LINE
  5
5401D
  8
0
 62
     0
 10
-19.57423641119258
 20
5.9367462016575763
 30
0.0
 11
-19.57423641119258
 21
5.9367462016575763
 31
0.0
  0
LINE
  5
5401E
  8
0
 62
     0
 10
-19.640527671928819
 20
5.8704549409213369
 30
0.0
 11
-19.640527671928819
 21
5.8704549409213369
 31
0.0
  0
LINE
  5
5401F
  8
0
 62
     0
 10
-19.706818932665058
 20
5.8041636801850993
 30
0.0
 11
-19.706818932665058
 21
5.8041636801850993
 31
0.0
  0
LINE
  5
54020
  8
0
 62
     0
 10
-19.773110193401301
 20
5.73787241944886
 30
0.0
 11
-19.773110193401301
 21
5.73787241944886
 31
0.0
  0
LINE
  5
54021
  8
0
 62
     0
 10
-19.839401454137541
 20
5.6715811587126224
 30
0.0
 11
-19.839401454137541
 21
5.6715811587126224
 31
0.0
  0
LINE
  5
54022
  8
0
 62
     0
 10
-19.90569271487378
 20
5.605289897976383
 30
0.0
 11
-19.90569271487378
 21
5.605289897976383
 31
0.0
  0
LINE
  5
54023
  8
0
 62
     0
 10
-19.971983975610019
 20
5.5389986372401454
 30
0.0
 11
-19.971983975610019
 21
5.5389986372401454
 31
0.0
  0
LINE
  5
54024
  8
0
 62
     0
 10
-20.038275236346259
 20
5.472707376503906
 30
0.0
 11
-20.038275236346259
 21
5.472707376503906
 31
0.0
  0
LINE
  5
54025
  8
0
 62
     0
 10
-20.104566497082502
 20
5.4064161157676676
 30
0.0
 11
-20.104566497082502
 21
5.4064161157676676
 31
0.0
  0
LINE
  5
54026
  8
0
 62
     0
 10
-17.651789849841659
 20
7.8591927630085001
 30
0.0
 11
-17.651789849841659
 21
7.8591927630085001
 31
0.0
  0
LINE
  5
54027
  8
0
 62
     0
 10
-17.718081110577899
 20
7.7929015022722607
 30
0.0
 11
-17.718081110577899
 21
7.7929015022722607
 31
0.0
  0
LINE
  5
54028
  8
0
 62
     0
 10
-17.784372371314142
 20
7.7266102415360232
 30
0.0
 11
-17.784372371314142
 21
7.7266102415360232
 31
0.0
  0
LINE
  5
54029
  8
0
 62
     0
 10
-17.850663632050381
 20
7.6603189807997838
 30
0.0
 11
-17.850663632050381
 21
7.6603189807997838
 31
0.0
  0
LINE
  5
5402A
  8
0
 62
     0
 10
-17.91695489278662
 20
7.5940277200635462
 30
0.0
 11
-17.91695489278662
 21
7.5940277200635462
 31
0.0
  0
LINE
  5
5402B
  8
0
 62
     0
 10
-17.983246153522849
 20
7.5277364593273068
 30
0.0
 11
-17.983246153522849
 21
7.5277364593273068
 31
0.0
  0
LINE
  5
5402C
  8
0
 62
     0
 10
-18.049537414259088
 20
7.4614451985910692
 30
0.0
 11
-18.049537414259088
 21
7.4614451985910692
 31
0.0
  0
LINE
  5
5402D
  8
0
 62
     0
 10
-20.170857757818741
 20
5.340124855031422
 30
0.0
 11
-20.170857757818741
 21
5.340124855031422
 31
0.0
  0
LINE
  5
5402E
  8
0
 62
     0
 10
-20.23714901855497
 20
5.2738335942951844
 30
0.0
 11
-20.23714901855497
 21
5.2738335942951844
 31
0.0
  0
LINE
  5
5402F
  8
0
 62
     0
 10
-20.303440279291209
 20
5.207542333558945
 30
0.0
 11
-20.303440279291209
 21
5.207542333558945
 31
0.0
  0
LINE
  5
54030
  8
0
 62
     0
 10
-20.369731540027448
 20
5.1412510728227074
 30
0.0
 11
-20.369731540027448
 21
5.1412510728227074
 31
0.0
  0
LINE
  5
54031
  8
0
 62
     0
 10
-20.436022800763691
 20
5.0749598120864681
 30
0.0
 11
-20.436022800763691
 21
5.0749598120864681
 31
0.0
  0
LINE
  5
54032
  8
0
 62
     0
 10
-20.502314061499931
 20
5.0086685513502296
 30
0.0
 11
-20.502314061499931
 21
5.0086685513502296
 31
0.0
  0
LINE
  5
54033
  8
0
 62
     0
 10
-20.56860532223617
 20
4.942377290613992
 30
0.0
 11
-20.56860532223617
 21
4.942377290613992
 31
0.0
  0
LINE
  5
54034
  8
0
 62
     0
 10
-18.281556826835931
 20
7.3620083074867093
 30
0.0
 11
-18.281556826835931
 21
7.3620083074867093
 31
0.0
  0
LINE
  5
54035
  8
0
 62
     0
 10
-18.34784808757216
 20
7.2957170467504593
 30
0.0
 11
-18.34784808757216
 21
7.2957170467504593
 31
0.0
  0
LINE
  5
54036
  8
0
 62
     0
 10
-18.414139348308399
 20
7.2294257860142199
 30
0.0
 11
-18.414139348308399
 21
7.2294257860142199
 31
0.0
  0
LINE
  5
54037
  8
0
 62
     0
 10
-18.480430609044639
 20
7.1631345252779823
 30
0.0
 11
-18.480430609044639
 21
7.1631345252779823
 31
0.0
  0
LINE
  5
54038
  8
0
 62
     0
 10
-18.546721869780882
 20
7.096843264541743
 30
0.0
 11
-18.546721869780882
 21
7.096843264541743
 31
0.0
  0
LINE
  5
54039
  8
0
 62
     0
 10
-18.61301313051711
 20
7.0305520038055054
 30
0.0
 11
-18.61301313051711
 21
7.0305520038055054
 31
0.0
  0
LINE
  5
5403A
  8
0
 62
     0
 10
-18.679304391253361
 20
6.964260743069266
 30
0.0
 11
-18.679304391253361
 21
6.964260743069266
 31
0.0
  0
LINE
  5
5403B
  8
0
 62
     0
 10
-18.745595651989589
 20
6.8979694823330284
 30
0.0
 11
-18.745595651989589
 21
6.8979694823330284
 31
0.0
  0
LINE
  5
5403C
  8
0
 62
     0
 10
-18.811886912725829
 20
6.8316782215967891
 30
0.0
 11
-18.811886912725829
 21
6.8316782215967891
 31
0.0
  0
LINE
  5
5403D
  8
0
 62
     0
 10
-18.878178173462071
 20
6.7653869608605506
 30
0.0
 11
-18.878178173462071
 21
6.7653869608605506
 31
0.0
  0
LINE
  5
5403E
  8
0
 62
     0
 10
-18.944469434198311
 20
6.6990957001243121
 30
0.0
 11
-18.944469434198311
 21
6.6990957001243121
 31
0.0
  0
LINE
  5
5403F
  8
0
 62
     0
 10
-19.01076069493455
 20
6.6328044393880736
 30
0.0
 11
-19.01076069493455
 21
6.6328044393880736
 31
0.0
  0
LINE
  5
54040
  8
0
 62
     0
 10
-19.07705195567079
 20
6.566513178651836
 30
0.0
 11
-19.07705195567079
 21
6.566513178651836
 31
0.0
  0
LINE
  5
54041
  8
0
 62
     0
 10
-19.143343216407029
 20
6.5002219179155967
 30
0.0
 11
-19.143343216407029
 21
6.5002219179155967
 31
0.0
  0
LINE
  5
54042
  8
0
 62
     0
 10
-19.209634477143268
 20
6.4339306571793591
 30
0.0
 11
-19.209634477143268
 21
6.4339306571793591
 31
0.0
  0
LINE
  5
54043
  8
0
 62
     0
 10
-19.275925737879511
 20
6.3676393964431197
 30
0.0
 11
-19.275925737879511
 21
6.3676393964431197
 31
0.0
  0
LINE
  5
54044
  8
0
 62
     0
 10
-19.342216998615751
 20
6.3013481357068821
 30
0.0
 11
-19.342216998615751
 21
6.3013481357068821
 31
0.0
  0
LINE
  5
54045
  8
0
 62
     0
 10
-19.40850825935199
 20
6.2350568749706428
 30
0.0
 11
-19.40850825935199
 21
6.2350568749706428
 31
0.0
  0
LINE
  5
54046
  8
0
 62
     0
 10
-19.474799520088229
 20
6.1687656142344052
 30
0.0
 11
-19.474799520088229
 21
6.1687656142344052
 31
0.0
  0
LINE
  5
54047
  8
0
 62
     0
 10
-19.541090780824469
 20
6.1024743534981658
 30
0.0
 11
-19.541090780824469
 21
6.1024743534981658
 31
0.0
  0
LINE
  5
54048
  8
0
 62
     0
 10
-19.607382041560701
 20
6.0361830927619282
 30
0.0
 11
-19.607382041560701
 21
6.0361830927619282
 31
0.0
  0
LINE
  5
54049
  8
0
 62
     0
 10
-19.673673302296951
 20
5.9698918320256888
 30
0.0
 11
-19.673673302296951
 21
5.9698918320256888
 31
0.0
  0
LINE
  5
5404A
  8
0
 62
     0
 10
-19.73996456303319
 20
5.9036005712894513
 30
0.0
 11
-19.73996456303319
 21
5.9036005712894513
 31
0.0
  0
LINE
  5
5404B
  8
0
 62
     0
 10
-19.806255823769419
 20
5.8373093105532119
 30
0.0
 11
-19.806255823769419
 21
5.8373093105532119
 31
0.0
  0
LINE
  5
5404C
  8
0
 62
     0
 10
-19.872547084505658
 20
5.7710180498169743
 30
0.0
 11
-19.872547084505658
 21
5.7710180498169743
 31
0.0
  0
LINE
  5
5404D
  8
0
 62
     0
 10
-19.938838345241901
 20
5.7047267890807349
 30
0.0
 11
-19.938838345241901
 21
5.7047267890807349
 31
0.0
  0
LINE
  5
5404E
  8
0
 62
     0
 10
-20.005129605978151
 20
5.6384355283444973
 30
0.0
 11
-20.005129605978151
 21
5.6384355283444973
 31
0.0
  0
LINE
  5
5404F
  8
0
 62
     0
 10
-20.07142086671438
 20
5.572144267608258
 30
0.0
 11
-20.07142086671438
 21
5.572144267608258
 31
0.0
  0
LINE
  5
54050
  8
0
 62
     0
 10
-20.137712127450619
 20
5.5058530068720204
 30
0.0
 11
-20.137712127450619
 21
5.5058530068720204
 31
0.0
  0
LINE
  5
54051
  8
0
 62
     0
 10
-20.204003388186859
 20
5.439561746135781
 30
0.0
 11
-20.204003388186859
 21
5.439561746135781
 31
0.0
  0
LINE
  5
54052
  8
0
 62
     0
 10
-17.75122674094602
 20
7.892338393376618
 30
0.0
 11
-17.75122674094602
 21
7.892338393376618
 31
0.0
  0
LINE
  5
54053
  8
0
 62
     0
 10
-17.817518001682249
 20
7.8260471326403787
 30
0.0
 11
-17.817518001682249
 21
7.8260471326403787
 31
0.0
  0
LINE
  5
54054
  8
0
 62
     0
 10
-17.883809262418492
 20
7.7597558719041411
 30
0.0
 11
-17.883809262418492
 21
7.7597558719041411
 31
0.0
  0
LINE
  5
54055
  8
0
 62
     0
 10
-17.950100523154731
 20
7.6934646111679017
 30
0.0
 11
-17.950100523154731
 21
7.6934646111679017
 31
0.0
  0
LINE
  5
54056
  8
0
 62
     0
 10
-18.01639178389097
 20
7.6271733504316641
 30
0.0
 11
-18.01639178389097
 21
7.6271733504316641
 31
0.0
  0
LINE
  5
54057
  8
0
 62
     0
 10
-18.08268304462721
 20
7.5608820896954247
 30
0.0
 11
-18.08268304462721
 21
7.5608820896954247
 31
0.0
  0
LINE
  5
54058
  8
0
 62
     0
 10
-18.148974305363449
 20
7.4945908289591872
 30
0.0
 11
-18.148974305363449
 21
7.4945908289591872
 31
0.0
  0
LINE
  5
54059
  8
0
 62
     0
 10
-20.270294648923102
 20
5.3732704853995417
 30
0.0
 11
-20.270294648923102
 21
5.3732704853995417
 31
0.0
  0
LINE
  5
5405A
  8
0
 62
     0
 10
-20.33658590965933
 20
5.3069792246633041
 30
0.0
 11
-20.33658590965933
 21
5.3069792246633041
 31
0.0
  0
LINE
  5
5405B
  8
0
 62
     0
 10
-20.40287717039557
 20
5.2406879639270647
 30
0.0
 11
-20.40287717039557
 21
5.2406879639270647
 31
0.0
  0
LINE
  5
5405C
  8
0
 62
     0
 10
-20.469168431131809
 20
5.1743967031908271
 30
0.0
 11
-20.469168431131809
 21
5.1743967031908271
 31
0.0
  0
LINE
  5
5405D
  8
0
 62
     0
 10
-20.535459691868049
 20
5.1081054424545878
 30
0.0
 11
-20.535459691868049
 21
5.1081054424545878
 31
0.0
  0
LINE
  5
5405E
  8
0
 62
     0
 10
-20.601750952604291
 20
5.0418141817183502
 30
0.0
 11
-20.601750952604291
 21
5.0418141817183502
 31
0.0
  0
LINE
  5
5405F
  8
0
 62
     0
 10
-20.668042213340531
 20
4.9755229209821108
 30
0.0
 11
-20.668042213340531
 21
4.9755229209821108
 31
0.0
  0
LINE
  5
54060
  8
0
 62
     0
 10
-18.380993717940289
 20
7.3951539378548281
 30
0.0
 11
-18.380993717940289
 21
7.3951539378548281
 31
0.0
  0
LINE
  5
54061
  8
0
 62
     0
 10
-18.44728497867651
 20
7.3288626771185799
 30
0.0
 11
-18.44728497867651
 21
7.3288626771185799
 31
0.0
  0
LINE
  5
54062
  8
0
 62
     0
 10
-18.51357623941275
 20
7.2625714163823423
 30
0.0
 11
-18.51357623941275
 21
7.2625714163823423
 31
0.0
  0
LINE
  5
54063
  8
0
 62
     0
 10
-18.579867500148989
 20
7.1962801556461029
 30
0.0
 11
-18.579867500148989
 21
7.1962801556461029
 31
0.0
  0
LINE
  5
54064
  8
0
 62
     0
 10
-18.646158760885228
 20
7.1299888949098653
 30
0.0
 11
-18.646158760885228
 21
7.1299888949098653
 31
0.0
  0
LINE
  5
54065
  8
0
 62
     0
 10
-18.712450021621471
 20
7.0636976341736259
 30
0.0
 11
-18.712450021621471
 21
7.0636976341736259
 31
0.0
  0
LINE
  5
54066
  8
0
 62
     0
 10
-18.778741282357711
 20
6.9974063734373884
 30
0.0
 11
-18.778741282357711
 21
6.9974063734373884
 31
0.0
  0
LINE
  5
54067
  8
0
 62
     0
 10
-18.84503254309395
 20
6.931115112701149
 30
0.0
 11
-18.84503254309395
 21
6.931115112701149
 31
0.0
  0
LINE
  5
54068
  8
0
 62
     0
 10
-18.911323803830189
 20
6.8648238519649114
 30
0.0
 11
-18.911323803830189
 21
6.8648238519649114
 31
0.0
  0
LINE
  5
54069
  8
0
 62
     0
 10
-18.977615064566429
 20
6.798532591228672
 30
0.0
 11
-18.977615064566429
 21
6.798532591228672
 31
0.0
  0
LINE
  5
5406A
  8
0
 62
     0
 10
-19.043906325302672
 20
6.7322413304924336
 30
0.0
 11
-19.043906325302672
 21
6.7322413304924336
 31
0.0
  0
LINE
  5
5406B
  8
0
 62
     0
 10
-19.110197586038911
 20
6.6659500697561951
 30
0.0
 11
-19.110197586038911
 21
6.6659500697561951
 31
0.0
  0
LINE
  5
5406C
  8
0
 62
     0
 10
-19.17648884677515
 20
6.5996588090199566
 30
0.0
 11
-19.17648884677515
 21
6.5996588090199566
 31
0.0
  0
LINE
  5
5406D
  8
0
 62
     0
 10
-19.242780107511379
 20
6.533367548283719
 30
0.0
 11
-19.242780107511379
 21
6.533367548283719
 31
0.0
  0
LINE
  5
5406E
  8
0
 62
     0
 10
-19.309071368247618
 20
6.4670762875474797
 30
0.0
 11
-19.309071368247618
 21
6.4670762875474797
 31
0.0
  0
LINE
  5
5406F
  8
0
 62
     0
 10
-19.375362628983861
 20
6.4007850268112421
 30
0.0
 11
-19.375362628983861
 21
6.4007850268112421
 31
0.0
  0
LINE
  5
54070
  8
0
 62
     0
 10
-19.441653889720101
 20
6.3344937660750027
 30
0.0
 11
-19.441653889720101
 21
6.3344937660750027
 31
0.0
  0
LINE
  5
54071
  8
0
 62
     0
 10
-19.50794515045634
 20
6.2682025053387651
 30
0.0
 11
-19.50794515045634
 21
6.2682025053387651
 31
0.0
  0
LINE
  5
54072
  8
0
 62
     0
 10
-19.57423641119258
 20
6.2019112446025257
 30
0.0
 11
-19.57423641119258
 21
6.2019112446025257
 31
0.0
  0
LINE
  5
54073
  8
0
 62
     0
 10
-19.640527671928819
 20
6.1356199838662882
 30
0.0
 11
-19.640527671928819
 21
6.1356199838662882
 31
0.0
  0
LINE
  5
54074
  8
0
 62
     0
 10
-19.706818932665058
 20
6.0693287231300488
 30
0.0
 11
-19.706818932665058
 21
6.0693287231300488
 31
0.0
  0
LINE
  5
54075
  8
0
 62
     0
 10
-19.773110193401301
 20
6.0030374623938112
 30
0.0
 11
-19.773110193401301
 21
6.0030374623938112
 31
0.0
  0
LINE
  5
54076
  8
0
 62
     0
 10
-19.839401454137541
 20
5.9367462016575718
 30
0.0
 11
-19.839401454137541
 21
5.9367462016575718
 31
0.0
  0
LINE
  5
54077
  8
0
 62
     0
 10
-19.90569271487378
 20
5.8704549409213342
 30
0.0
 11
-19.90569271487378
 21
5.8704549409213342
 31
0.0
  0
LINE
  5
54078
  8
0
 62
     0
 10
-19.971983975610019
 20
5.8041636801850949
 30
0.0
 11
-19.971983975610019
 21
5.8041636801850949
 31
0.0
  0
LINE
  5
54079
  8
0
 62
     0
 10
-20.038275236346259
 20
5.7378724194488573
 30
0.0
 11
-20.038275236346259
 21
5.7378724194488573
 31
0.0
  0
LINE
  5
5407A
  8
0
 62
     0
 10
-20.104566497082502
 20
5.6715811587126179
 30
0.0
 11
-20.104566497082502
 21
5.6715811587126179
 31
0.0
  0
LINE
  5
5407B
  8
0
 62
     0
 10
-20.170857757818741
 20
5.6052898979763803
 30
0.0
 11
-20.170857757818741
 21
5.6052898979763803
 31
0.0
  0
LINE
  5
5407C
  8
0
 62
     0
 10
-20.23714901855498
 20
5.538998637240141
 30
0.0
 11
-20.23714901855498
 21
5.538998637240141
 31
0.0
  0
LINE
  5
5407D
  8
0
 62
     0
 10
-20.30344027929122
 20
5.4727073765039034
 30
0.0
 11
-20.30344027929122
 21
5.4727073765039034
 31
0.0
  0
LINE
  5
5407E
  8
0
 62
     0
 10
-17.784372371314142
 20
7.9917752844809762
 30
0.0
 11
-17.784372371314142
 21
7.9917752844809762
 31
0.0
  0
LINE
  5
5407F
  8
0
 62
     0
 10
-17.850663632050381
 20
7.9254840237447368
 30
0.0
 11
-17.850663632050381
 21
7.9254840237447368
 31
0.0
  0
LINE
  5
54080
  8
0
 62
     0
 10
-17.91695489278662
 20
7.8591927630084992
 30
0.0
 11
-17.91695489278662
 21
7.8591927630084992
 31
0.0
  0
LINE
  5
54081
  8
0
 62
     0
 10
-17.983246153522849
 20
7.7929015022722599
 30
0.0
 11
-17.983246153522849
 21
7.7929015022722599
 31
0.0
  0
LINE
  5
54082
  8
0
 62
     0
 10
-18.049537414259088
 20
7.7266102415360223
 30
0.0
 11
-18.049537414259088
 21
7.7266102415360223
 31
0.0
  0
LINE
  5
54083
  8
0
 62
     0
 10
-18.115828674995331
 20
7.6603189807997829
 30
0.0
 11
-18.115828674995331
 21
7.6603189807997829
 31
0.0
  0
LINE
  5
54084
  8
0
 62
     0
 10
-18.182119935731571
 20
7.5940277200635453
 30
0.0
 11
-18.182119935731571
 21
7.5940277200635453
 31
0.0
  0
LINE
  5
54085
  8
0
 62
     0
 10
-18.24841119646781
 20
7.527736459327306
 30
0.0
 11
-18.24841119646781
 21
7.527736459327306
 31
0.0
  0
LINE
  5
54086
  8
0
 62
     0
 10
-20.369731540027448
 20
5.4064161157676622
 30
0.0
 11
-20.369731540027448
 21
5.4064161157676622
 31
0.0
  0
LINE
  5
54087
  8
0
 62
     0
 10
-20.436022800763691
 20
5.3401248550314229
 30
0.0
 11
-20.436022800763691
 21
5.3401248550314229
 31
0.0
  0
LINE
  5
54088
  8
0
 62
     0
 10
-20.502314061499931
 20
5.2738335942951853
 30
0.0
 11
-20.502314061499931
 21
5.2738335942951853
 31
0.0
  0
LINE
  5
54089
  8
0
 62
     0
 10
-20.56860532223617
 20
5.2075423335589459
 30
0.0
 11
-20.56860532223617
 21
5.2075423335589459
 31
0.0
  0
LINE
  5
5408A
  8
0
 62
     0
 10
-20.634896582972409
 20
5.1412510728227083
 30
0.0
 11
-20.634896582972409
 21
5.1412510728227083
 31
0.0
  0
LINE
  5
5408B
  8
0
 62
     0
 10
-20.701187843708649
 20
5.074959812086469
 30
0.0
 11
-20.701187843708649
 21
5.074959812086469
 31
0.0
  0
LINE
  5
5408C
  8
0
 62
     0
 10
-20.767479104444892
 20
5.0086685513502314
 30
0.0
 11
-20.767479104444892
 21
5.0086685513502314
 31
0.0
  0
LINE
  5
5408D
  8
0
 62
     0
 10
-18.480430609044639
 20
7.4282995682229487
 30
0.0
 11
-18.480430609044639
 21
7.4282995682229487
 31
0.0
  0
LINE
  5
5408E
  8
0
 62
     0
 10
-18.546721869780871
 20
7.3620083074867031
 30
0.0
 11
-18.546721869780871
 21
7.3620083074867031
 31
0.0
  0
LINE
  5
5408F
  8
0
 62
     0
 10
-18.61301313051711
 20
7.2957170467504637
 30
0.0
 11
-18.61301313051711
 21
7.2957170467504637
 31
0.0
  0
LINE
  5
54090
  8
0
 62
     0
 10
-18.67930439125335
 20
7.2294257860142261
 30
0.0
 11
-18.67930439125335
 21
7.2294257860142261
 31
0.0
  0
LINE
  5
54091
  8
0
 62
     0
 10
-18.745595651989589
 20
7.1631345252779868
 30
0.0
 11
-18.745595651989589
 21
7.1631345252779868
 31
0.0
  0
LINE
  5
54092
  8
0
 62
     0
 10
-18.811886912725829
 20
7.0968432645417492
 30
0.0
 11
-18.811886912725829
 21
7.0968432645417492
 31
0.0
  0
LINE
  5
54093
  8
0
 62
     0
 10
-18.878178173462061
 20
7.0305520038055098
 30
0.0
 11
-18.878178173462061
 21
7.0305520038055098
 31
0.0
  0
LINE
  5
54094
  8
0
 62
     0
 10
-18.944469434198311
 20
6.9642607430692722
 30
0.0
 11
-18.944469434198311
 21
6.9642607430692722
 31
0.0
  0
LINE
  5
54095
  8
0
 62
     0
 10
-19.01076069493455
 20
6.8979694823330329
 30
0.0
 11
-19.01076069493455
 21
6.8979694823330329
 31
0.0
  0
LINE
  5
54096
  8
0
 62
     0
 10
-19.077051955670779
 20
6.8316782215967953
 30
0.0
 11
-19.077051955670779
 21
6.8316782215967953
 31
0.0
  0
LINE
  5
54097
  8
0
 62
     0
 10
-19.143343216407018
 20
6.7653869608605559
 30
0.0
 11
-19.143343216407018
 21
6.7653869608605559
 31
0.0
  0
LINE
  5
54098
  8
0
 62
     0
 10
-19.209634477143261
 20
6.6990957001243183
 30
0.0
 11
-19.209634477143261
 21
6.6990957001243183
 31
0.0
  0
LINE
  5
54099
  8
0
 62
     0
 10
-19.275925737879501
 20
6.632804439388079
 30
0.0
 11
-19.275925737879501
 21
6.632804439388079
 31
0.0
  0
LINE
  5
5409A
  8
0
 62
     0
 10
-19.34221699861574
 20
6.5665131786518414
 30
0.0
 11
-19.34221699861574
 21
6.5665131786518414
 31
0.0
  0
LINE
  5
5409B
  8
0
 62
     0
 10
-19.408508259351979
 20
6.500221917915602
 30
0.0
 11
-19.408508259351979
 21
6.500221917915602
 31
0.0
  0
LINE
  5
5409C
  8
0
 62
     0
 10
-19.474799520088219
 20
6.4339306571793644
 30
0.0
 11
-19.474799520088219
 21
6.4339306571793644
 31
0.0
  0
LINE
  5
5409D
  8
0
 62
     0
 10
-19.541090780824462
 20
6.367639396443125
 30
0.0
 11
-19.541090780824462
 21
6.367639396443125
 31
0.0
  0
LINE
  5
5409E
  8
0
 62
     0
 10
-19.607382041560701
 20
6.3013481357068866
 30
0.0
 11
-19.607382041560701
 21
6.3013481357068866
 31
0.0
  0
LINE
  5
5409F
  8
0
 62
     0
 10
-19.67367330229694
 20
6.2350568749706481
 30
0.0
 11
-19.67367330229694
 21
6.2350568749706481
 31
0.0
  0
LINE
  5
540A0
  8
0
 62
     0
 10
-19.73996456303318
 20
6.1687656142344096
 30
0.0
 11
-19.73996456303318
 21
6.1687656142344096
 31
0.0
  0
LINE
  5
540A1
  8
0
 62
     0
 10
-19.806255823769419
 20
6.102474353498172
 30
0.0
 11
-19.806255823769419
 21
6.102474353498172
 31
0.0
  0
LINE
  5
540A2
  8
0
 62
     0
 10
-19.872547084505658
 20
6.0361830927619327
 30
0.0
 11
-19.872547084505658
 21
6.0361830927619327
 31
0.0
  0
LINE
  5
540A3
  8
0
 62
     0
 10
-19.938838345241901
 20
5.9698918320256951
 30
0.0
 11
-19.938838345241901
 21
5.9698918320256951
 31
0.0
  0
LINE
  5
540A4
  8
0
 62
     0
 10
-20.005129605978141
 20
5.9036005712894557
 30
0.0
 11
-20.005129605978141
 21
5.9036005712894557
 31
0.0
  0
LINE
  5
540A5
  8
0
 62
     0
 10
-20.07142086671438
 20
5.8373093105532181
 30
0.0
 11
-20.07142086671438
 21
5.8373093105532181
 31
0.0
  0
LINE
  5
540A6
  8
0
 62
     0
 10
-20.137712127450619
 20
5.7710180498169787
 30
0.0
 11
-20.137712127450619
 21
5.7710180498169787
 31
0.0
  0
LINE
  5
540A7
  8
0
 62
     0
 10
-20.204003388186852
 20
5.7047267890807412
 30
0.0
 11
-20.204003388186852
 21
5.7047267890807412
 31
0.0
  0
LINE
  5
540A8
  8
0
 62
     0
 10
-20.270294648923102
 20
5.6384355283445018
 30
0.0
 11
-20.270294648923102
 21
5.6384355283445018
 31
0.0
  0
LINE
  5
540A9
  8
0
 62
     0
 10
-20.33658590965933
 20
5.5721442676082642
 30
0.0
 11
-20.33658590965933
 21
5.5721442676082642
 31
0.0
  0
LINE
  5
540AA
  8
0
 62
     0
 10
-17.883809262418492
 20
8.0249209148490994
 30
0.0
 11
-17.883809262418492
 21
8.0249209148490994
 31
0.0
  0
LINE
  5
540AB
  8
0
 62
     0
 10
-17.950100523154731
 20
7.9586296541128601
 30
0.0
 11
-17.950100523154731
 21
7.9586296541128601
 31
0.0
  0
LINE
  5
540AC
  8
0
 62
     0
 10
-18.01639178389097
 20
7.8923383933766216
 30
0.0
 11
-18.01639178389097
 21
7.8923383933766216
 31
0.0
  0
LINE
  5
540AD
  8
0
 62
     0
 10
-18.08268304462721
 20
7.8260471326403831
 30
0.0
 11
-18.08268304462721
 21
7.8260471326403831
 31
0.0
  0
LINE
  5
540AE
  8
0
 62
     0
 10
-18.148974305363449
 20
7.7597558719041446
 30
0.0
 11
-18.148974305363449
 21
7.7597558719041446
 31
0.0
  0
LINE
  5
540AF
  8
0
 62
     0
 10
-18.215265566099688
 20
7.693464611167907
 30
0.0
 11
-18.215265566099688
 21
7.693464611167907
 31
0.0
  0
LINE
  5
540B0
  8
0
 62
     0
 10
-18.281556826835931
 20
7.6271733504316677
 30
0.0
 11
-18.281556826835931
 21
7.6271733504316677
 31
0.0
  0
LINE
  5
540B1
  8
0
 62
     0
 10
-20.40287717039557
 20
5.5058530068720213
 30
0.0
 11
-20.40287717039557
 21
5.5058530068720213
 31
0.0
  0
LINE
  5
540B2
  8
0
 62
     0
 10
-20.469168431131809
 20
5.4395617461357819
 30
0.0
 11
-20.469168431131809
 21
5.4395617461357819
 31
0.0
  0
LINE
  5
540B3
  8
0
 62
     0
 10
-20.535459691868049
 20
5.3732704853995443
 30
0.0
 11
-20.535459691868049
 21
5.3732704853995443
 31
0.0
  0
LINE
  5
540B4
  8
0
 62
     0
 10
-20.601750952604291
 20
5.306979224663305
 30
0.0
 11
-20.601750952604291
 21
5.306979224663305
 31
0.0
  0
LINE
  5
540B5
  8
0
 62
     0
 10
-20.668042213340531
 20
5.2406879639270674
 30
0.0
 11
-20.668042213340531
 21
5.2406879639270674
 31
0.0
  0
LINE
  5
540B6
  8
0
 62
     0
 10
-20.73433347407677
 20
5.174396703190828
 30
0.0
 11
-20.73433347407677
 21
5.174396703190828
 31
0.0
  0
LINE
  5
540B7
  8
0
 62
     0
 10
-20.80062473481301
 20
5.1081054424545904
 30
0.0
 11
-20.80062473481301
 21
5.1081054424545904
 31
0.0
  0
LINE
  5
540B8
  8
0
 62
     0
 10
-20.866915995549238
 20
5.0418141817183511
 30
0.0
 11
-20.866915995549238
 21
5.0418141817183511
 31
0.0
  0
LINE
  5
540B9
  8
0
 62
     0
 10
-18.513576239412771
 20
7.5277364593273051
 30
0.0
 11
-18.513576239412771
 21
7.5277364593273051
 31
0.0
  0
LINE
  5
540BA
  8
0
 62
     0
 10
-18.57986750014901
 20
7.4614451985910666
 30
0.0
 11
-18.57986750014901
 21
7.4614451985910666
 31
0.0
  0
LINE
  5
540BB
  8
0
 62
     0
 10
-18.646158760885228
 20
7.3951539378548192
 30
0.0
 11
-18.646158760885228
 21
7.3951539378548192
 31
0.0
  0
LINE
  5
540BC
  8
0
 62
     0
 10
-18.712450021621471
 20
7.3288626771185799
 30
0.0
 11
-18.712450021621471
 21
7.3288626771185799
 31
0.0
  0
LINE
  5
540BD
  8
0
 62
     0
 10
-18.778741282357711
 20
7.2625714163823423
 30
0.0
 11
-18.778741282357711
 21
7.2625714163823423
 31
0.0
  0
LINE
  5
540BE
  8
0
 62
     0
 10
-18.84503254309395
 20
7.1962801556461029
 30
0.0
 11
-18.84503254309395
 21
7.1962801556461029
 31
0.0
  0
LINE
  5
540BF
  8
0
 62
     0
 10
-18.911323803830189
 20
7.1299888949098653
 30
0.0
 11
-18.911323803830189
 21
7.1299888949098653
 31
0.0
  0
LINE
  5
540C0
  8
0
 62
     0
 10
-18.977615064566429
 20
7.0636976341736259
 30
0.0
 11
-18.977615064566429
 21
7.0636976341736259
 31
0.0
  0
LINE
  5
540C1
  8
0
 62
     0
 10
-19.043906325302672
 20
6.9974063734373884
 30
0.0
 11
-19.043906325302672
 21
6.9974063734373884
 31
0.0
  0
LINE
  5
540C2
  8
0
 62
     0
 10
-19.110197586038911
 20
6.931115112701149
 30
0.0
 11
-19.110197586038911
 21
6.931115112701149
 31
0.0
  0
LINE
  5
540C3
  8
0
 62
     0
 10
-19.17648884677515
 20
6.8648238519649114
 30
0.0
 11
-19.17648884677515
 21
6.8648238519649114
 31
0.0
  0
LINE
  5
540C4
  8
0
 62
     0
 10
-19.24278010751139
 20
6.798532591228672
 30
0.0
 11
-19.24278010751139
 21
6.798532591228672
 31
0.0
  0
LINE
  5
540C5
  8
0
 62
     0
 10
-19.309071368247629
 20
6.7322413304924336
 30
0.0
 11
-19.309071368247629
 21
6.7322413304924336
 31
0.0
  0
LINE
  5
540C6
  8
0
 62
     0
 10
-19.375362628983869
 20
6.6659500697561951
 30
0.0
 11
-19.375362628983869
 21
6.6659500697561951
 31
0.0
  0
LINE
  5
540C7
  8
0
 62
     0
 10
-19.441653889720111
 20
6.5996588090199566
 30
0.0
 11
-19.441653889720111
 21
6.5996588090199566
 31
0.0
  0
LINE
  5
540C8
  8
0
 62
     0
 10
-19.50794515045634
 20
6.533367548283719
 30
0.0
 11
-19.50794515045634
 21
6.533367548283719
 31
0.0
  0
LINE
  5
540C9
  8
0
 62
     0
 10
-19.57423641119259
 20
6.4670762875474797
 30
0.0
 11
-19.57423641119259
 21
6.4670762875474797
 31
0.0
  0
LINE
  5
540CA
  8
0
 62
     0
 10
-19.640527671928819
 20
6.4007850268112421
 30
0.0
 11
-19.640527671928819
 21
6.4007850268112421
 31
0.0
  0
LINE
  5
540CB
  8
0
 62
     0
 10
-19.706818932665058
 20
6.3344937660750027
 30
0.0
 11
-19.706818932665058
 21
6.3344937660750027
 31
0.0
  0
LINE
  5
540CC
  8
0
 62
     0
 10
-19.773110193401301
 20
6.2682025053387651
 30
0.0
 11
-19.773110193401301
 21
6.2682025053387651
 31
0.0
  0
LINE
  5
540CD
  8
0
 62
     0
 10
-19.839401454137541
 20
6.2019112446025257
 30
0.0
 11
-19.839401454137541
 21
6.2019112446025257
 31
0.0
  0
LINE
  5
540CE
  8
0
 62
     0
 10
-19.90569271487378
 20
6.1356199838662882
 30
0.0
 11
-19.90569271487378
 21
6.1356199838662882
 31
0.0
  0
LINE
  5
540CF
  8
0
 62
     0
 10
-19.971983975610019
 20
6.0693287231300488
 30
0.0
 11
-19.971983975610019
 21
6.0693287231300488
 31
0.0
  0
LINE
  5
540D0
  8
0
 62
     0
 10
-20.038275236346259
 20
6.0030374623938112
 30
0.0
 11
-20.038275236346259
 21
6.0030374623938112
 31
0.0
  0
LINE
  5
540D1
  8
0
 62
     0
 10
-20.104566497082502
 20
5.9367462016575718
 30
0.0
 11
-20.104566497082502
 21
5.9367462016575718
 31
0.0
  0
LINE
  5
540D2
  8
0
 62
     0
 10
-20.170857757818741
 20
5.8704549409213342
 30
0.0
 11
-20.170857757818741
 21
5.8704549409213342
 31
0.0
  0
LINE
  5
540D3
  8
0
 62
     0
 10
-20.23714901855498
 20
5.8041636801850949
 30
0.0
 11
-20.23714901855498
 21
5.8041636801850949
 31
0.0
  0
LINE
  5
540D4
  8
0
 62
     0
 10
-20.30344027929122
 20
5.7378724194488573
 30
0.0
 11
-20.30344027929122
 21
5.7378724194488573
 31
0.0
  0
LINE
  5
540D5
  8
0
 62
     0
 10
-20.369731540027459
 20
5.6715811587126179
 30
0.0
 11
-20.369731540027459
 21
5.6715811587126179
 31
0.0
  0
LINE
  5
540D6
  8
0
 62
     0
 10
-20.436022800763698
 20
5.6052898979763803
 30
0.0
 11
-20.436022800763698
 21
5.6052898979763803
 31
0.0
  0
LINE
  5
540D7
  8
0
 62
     0
 10
-17.983246153522849
 20
8.0580665452172155
 30
0.0
 11
-17.983246153522849
 21
8.0580665452172155
 31
0.0
  0
LINE
  5
540D8
  8
0
 62
     0
 10
-18.049537414259088
 20
7.9917752844809771
 30
0.0
 11
-18.049537414259088
 21
7.9917752844809771
 31
0.0
  0
LINE
  5
540D9
  8
0
 62
     0
 10
-18.115828674995331
 20
7.9254840237447377
 30
0.0
 11
-18.115828674995331
 21
7.9254840237447377
 31
0.0
  0
LINE
  5
540DA
  8
0
 62
     0
 10
-18.182119935731571
 20
7.8591927630085001
 30
0.0
 11
-18.182119935731571
 21
7.8591927630085001
 31
0.0
  0
LINE
  5
540DB
  8
0
 62
     0
 10
-18.24841119646781
 20
7.7929015022722607
 30
0.0
 11
-18.24841119646781
 21
7.7929015022722607
 31
0.0
  0
LINE
  5
540DC
  8
0
 62
     0
 10
-18.314702457204049
 20
7.7266102415360232
 30
0.0
 11
-18.314702457204049
 21
7.7266102415360232
 31
0.0
  0
LINE
  5
540DD
  8
0
 62
     0
 10
-18.380993717940289
 20
7.6603189807997838
 30
0.0
 11
-18.380993717940289
 21
7.6603189807997838
 31
0.0
  0
LINE
  5
540DE
  8
0
 62
     0
 10
-20.502314061499931
 20
5.5389986372401401
 30
0.0
 11
-20.502314061499931
 21
5.5389986372401401
 31
0.0
  0
LINE
  5
540DF
  8
0
 62
     0
 10
-20.56860532223617
 20
5.4727073765039016
 30
0.0
 11
-20.56860532223617
 21
5.4727073765039016
 31
0.0
  0
LINE
  5
540E0
  8
0
 62
     0
 10
-20.634896582972409
 20
5.406416115767664
 30
0.0
 11
-20.634896582972409
 21
5.406416115767664
 31
0.0
  0
LINE
  5
540E1
  8
0
 62
     0
 10
-20.701187843708649
 20
5.3401248550314246
 30
0.0
 11
-20.701187843708649
 21
5.3401248550314246
 31
0.0
  0
LINE
  5
540E2
  8
0
 62
     0
 10
-20.767479104444892
 20
5.2738335942951871
 30
0.0
 11
-20.767479104444892
 21
5.2738335942951871
 31
0.0
  0
LINE
  5
540E3
  8
0
 62
     0
 10
-20.833770365181131
 20
5.2075423335589477
 30
0.0
 11
-20.833770365181131
 21
5.2075423335589477
 31
0.0
  0
LINE
  5
540E4
  8
0
 62
     0
 10
-20.90006162591737
 20
5.1412510728227101
 30
0.0
 11
-20.90006162591737
 21
5.1412510728227101
 31
0.0
  0
LINE
  5
540E5
  8
0
 62
     0
 10
-18.613013130517128
 20
7.5608820896954283
 30
0.0
 11
-18.613013130517128
 21
7.5608820896954283
 31
0.0
  0
LINE
  5
540E6
  8
0
 62
     0
 10
-18.67930439125335
 20
7.4945908289591774
 30
0.0
 11
-18.67930439125335
 21
7.4945908289591774
 31
0.0
  0
LINE
  5
540E7
  8
0
 62
     0
 10
-18.745595651989589
 20
7.428299568222938
 30
0.0
 11
-18.745595651989589
 21
7.428299568222938
 31
0.0
  0
LINE
  5
540E8
  8
0
 62
     0
 10
-18.811886912725829
 20
7.3620083074867004
 30
0.0
 11
-18.811886912725829
 21
7.3620083074867004
 31
0.0
  0
LINE
  5
540E9
  8
0
 62
     0
 10
-18.878178173462061
 20
7.2957170467504611
 30
0.0
 11
-18.878178173462061
 21
7.2957170467504611
 31
0.0
  0
LINE
  5
540EA
  8
0
 62
     0
 10
-18.944469434198311
 20
7.2294257860142226
 30
0.0
 11
-18.944469434198311
 21
7.2294257860142226
 31
0.0
  0
LINE
  5
540EB
  8
0
 62
     0
 10
-19.01076069493455
 20
7.1631345252779841
 30
0.0
 11
-19.01076069493455
 21
7.1631345252779841
 31
0.0
  0
LINE
  5
540EC
  8
0
 62
     0
 10
-19.077051955670779
 20
7.0968432645417456
 30
0.0
 11
-19.077051955670779
 21
7.0968432645417456
 31
0.0
  0
LINE
  5
540ED
  8
0
 62
     0
 10
-19.143343216407018
 20
7.030552003805508
 30
0.0
 11
-19.143343216407018
 21
7.030552003805508
 31
0.0
  0
LINE
  5
540EE
  8
0
 62
     0
 10
-19.209634477143261
 20
6.9642607430692687
 30
0.0
 11
-19.209634477143261
 21
6.9642607430692687
 31
0.0
  0
LINE
  5
540EF
  8
0
 62
     0
 10
-19.275925737879501
 20
6.8979694823330311
 30
0.0
 11
-19.275925737879501
 21
6.8979694823330311
 31
0.0
  0
LINE
  5
540F0
  8
0
 62
     0
 10
-19.34221699861574
 20
6.8316782215967917
 30
0.0
 11
-19.34221699861574
 21
6.8316782215967917
 31
0.0
  0
LINE
  5
540F1
  8
0
 62
     0
 10
-19.408508259351979
 20
6.7653869608605541
 30
0.0
 11
-19.408508259351979
 21
6.7653869608605541
 31
0.0
  0
LINE
  5
540F2
  8
0
 62
     0
 10
-19.474799520088219
 20
6.6990957001243148
 30
0.0
 11
-19.474799520088219
 21
6.6990957001243148
 31
0.0
  0
LINE
  5
540F3
  8
0
 62
     0
 10
-19.541090780824462
 20
6.6328044393880772
 30
0.0
 11
-19.541090780824462
 21
6.6328044393880772
 31
0.0
  0
LINE
  5
540F4
  8
0
 62
     0
 10
-19.607382041560701
 20
6.5665131786518378
 30
0.0
 11
-19.607382041560701
 21
6.5665131786518378
 31
0.0
  0
LINE
  5
540F5
  8
0
 62
     0
 10
-19.67367330229694
 20
6.5002219179156002
 30
0.0
 11
-19.67367330229694
 21
6.5002219179156002
 31
0.0
  0
LINE
  5
540F6
  8
0
 62
     0
 10
-19.73996456303318
 20
6.4339306571793609
 30
0.0
 11
-19.73996456303318
 21
6.4339306571793609
 31
0.0
  0
LINE
  5
540F7
  8
0
 62
     0
 10
-19.806255823769419
 20
6.3676393964431233
 30
0.0
 11
-19.806255823769419
 21
6.3676393964431233
 31
0.0
  0
LINE
  5
540F8
  8
0
 62
     0
 10
-19.872547084505658
 20
6.3013481357068839
 30
0.0
 11
-19.872547084505658
 21
6.3013481357068839
 31
0.0
  0
LINE
  5
540F9
  8
0
 62
     0
 10
-19.938838345241901
 20
6.2350568749706463
 30
0.0
 11
-19.938838345241901
 21
6.2350568749706463
 31
0.0
  0
LINE
  5
540FA
  8
0
 62
     0
 10
-20.005129605978141
 20
6.1687656142344069
 30
0.0
 11
-20.005129605978141
 21
6.1687656142344069
 31
0.0
  0
LINE
  5
540FB
  8
0
 62
     0
 10
-20.07142086671438
 20
6.1024743534981694
 30
0.0
 11
-20.07142086671438
 21
6.1024743534981694
 31
0.0
  0
LINE
  5
540FC
  8
0
 62
     0
 10
-20.137712127450619
 20
6.03618309276193
 30
0.0
 11
-20.137712127450619
 21
6.03618309276193
 31
0.0
  0
LINE
  5
540FD
  8
0
 62
     0
 10
-20.204003388186852
 20
5.9698918320256924
 30
0.0
 11
-20.204003388186852
 21
5.9698918320256924
 31
0.0
  0
LINE
  5
540FE
  8
0
 62
     0
 10
-20.270294648923102
 20
5.903600571289453
 30
0.0
 11
-20.270294648923102
 21
5.903600571289453
 31
0.0
  0
LINE
  5
540FF
  8
0
 62
     0
 10
-20.33658590965933
 20
5.8373093105532146
 30
0.0
 11
-20.33658590965933
 21
5.8373093105532146
 31
0.0
  0
LINE
  5
54100
  8
0
 62
     0
 10
-20.40287717039557
 20
5.7710180498169761
 30
0.0
 11
-20.40287717039557
 21
5.7710180498169761
 31
0.0
  0
LINE
  5
54101
  8
0
 62
     0
 10
-20.469168431131809
 20
5.7047267890807376
 30
0.0
 11
-20.469168431131809
 21
5.7047267890807376
 31
0.0
  0
LINE
  5
54102
  8
0
 62
     0
 10
-20.535459691868049
 20
5.6384355283445
 30
0.0
 11
-20.535459691868049
 21
5.6384355283445
 31
0.0
  0
LINE
  5
54103
  8
0
 62
     0
 10
-18.08268304462721
 20
8.0912121755853388
 30
0.0
 11
-18.08268304462721
 21
8.0912121755853388
 31
0.0
  0
LINE
  5
54104
  8
0
 62
     0
 10
-18.148974305363449
 20
8.0249209148490994
 30
0.0
 11
-18.148974305363449
 21
8.0249209148490994
 31
0.0
  0
LINE
  5
54105
  8
0
 62
     0
 10
-18.215265566099688
 20
7.9586296541128601
 30
0.0
 11
-18.215265566099688
 21
7.9586296541128601
 31
0.0
  0
LINE
  5
54106
  8
0
 62
     0
 10
-18.281556826835931
 20
7.8923383933766207
 30
0.0
 11
-18.281556826835931
 21
7.8923383933766207
 31
0.0
  0
LINE
  5
54107
  8
0
 62
     0
 10
-18.347848087572171
 20
7.8260471326403831
 30
0.0
 11
-18.347848087572171
 21
7.8260471326403831
 31
0.0
  0
LINE
  5
54108
  8
0
 62
     0
 10
-18.41413934830841
 20
7.7597558719041437
 30
0.0
 11
-18.41413934830841
 21
7.7597558719041437
 31
0.0
  0
LINE
  5
54109
  8
0
 62
     0
 10
-18.48043060904465
 20
7.6934646111679061
 30
0.0
 11
-18.48043060904465
 21
7.6934646111679061
 31
0.0
  0
LINE
  5
5410A
  8
0
 62
     0
 10
-20.601750952604291
 20
5.5721442676082589
 30
0.0
 11
-20.601750952604291
 21
5.5721442676082589
 31
0.0
  0
LINE
  5
5410B
  8
0
 62
     0
 10
-20.668042213340531
 20
5.5058530068720213
 30
0.0
 11
-20.668042213340531
 21
5.5058530068720213
 31
0.0
  0
LINE
  5
5410C
  8
0
 62
     0
 10
-20.73433347407677
 20
5.4395617461357819
 30
0.0
 11
-20.73433347407677
 21
5.4395617461357819
 31
0.0
  0
LINE
  5
5410D
  8
0
 62
     0
 10
-20.80062473481301
 20
5.3732704853995443
 30
0.0
 11
-20.80062473481301
 21
5.3732704853995443
 31
0.0
  0
LINE
  5
5410E
  8
0
 62
     0
 10
-20.866915995549249
 20
5.306979224663305
 30
0.0
 11
-20.866915995549249
 21
5.306979224663305
 31
0.0
  0
LINE
  5
5410F
  8
0
 62
     0
 10
-20.933207256285488
 20
5.2406879639270674
 30
0.0
 11
-20.933207256285488
 21
5.2406879639270674
 31
0.0
  0
LINE
  5
54110
  8
0
 62
     0
 10
-20.999498517021731
 20
5.174396703190828
 30
0.0
 11
-20.999498517021731
 21
5.174396703190828
 31
0.0
  0
LINE
  5
54111
  8
0
 62
     0
 10
-18.712450021621478
 20
7.5940277200635471
 30
0.0
 11
-18.712450021621478
 21
7.5940277200635471
 31
0.0
  0
LINE
  5
54112
  8
0
 62
     0
 10
-18.7787412823577
 20
7.5277364593273006
 30
0.0
 11
-18.7787412823577
 21
7.5277364593273006
 31
0.0
  0
LINE
  5
54113
  8
0
 62
     0
 10
-18.84503254309395
 20
7.461445198591063
 30
0.0
 11
-18.84503254309395
 21
7.461445198591063
 31
0.0
  0
LINE
  5
54114
  8
0
 62
     0
 10
-18.911323803830179
 20
7.3951539378548237
 30
0.0
 11
-18.911323803830179
 21
7.3951539378548237
 31
0.0
  0
LINE
  5
54115
  8
0
 62
     0
 10
-18.977615064566422
 20
7.3288626771185861
 30
0.0
 11
-18.977615064566422
 21
7.3288626771185861
 31
0.0
  0
LINE
  5
54116
  8
0
 62
     0
 10
-19.043906325302661
 20
7.2625714163823467
 30
0.0
 11
-19.043906325302661
 21
7.2625714163823467
 31
0.0
  0
LINE
  5
54117
  8
0
 62
     0
 10
-19.1101975860389
 20
7.1962801556461091
 30
0.0
 11
-19.1101975860389
 21
7.1962801556461091
 31
0.0
  0
LINE
  5
54118
  8
0
 62
     0
 10
-19.17648884677514
 20
7.1299888949098698
 30
0.0
 11
-19.17648884677514
 21
7.1299888949098698
 31
0.0
  0
LINE
  5
54119
  8
0
 62
     0
 10
-19.242780107511379
 20
7.0636976341736322
 30
0.0
 11
-19.242780107511379
 21
7.0636976341736322
 31
0.0
  0
LINE
  5
5411A
  8
0
 62
     0
 10
-19.309071368247618
 20
6.9974063734373928
 30
0.0
 11
-19.309071368247618
 21
6.9974063734373928
 31
0.0
  0
LINE
  5
5411B
  8
0
 62
     0
 10
-19.375362628983861
 20
6.9311151127011552
 30
0.0
 11
-19.375362628983861
 21
6.9311151127011552
 31
0.0
  0
LINE
  5
5411C
  8
0
 62
     0
 10
-19.441653889720101
 20
6.8648238519649158
 30
0.0
 11
-19.441653889720101
 21
6.8648238519649158
 31
0.0
  0
LINE
  5
5411D
  8
0
 62
     0
 10
-19.50794515045634
 20
6.7985325912286783
 30
0.0
 11
-19.50794515045634
 21
6.7985325912286783
 31
0.0
  0
LINE
  5
5411E
  8
0
 62
     0
 10
-19.57423641119258
 20
6.7322413304924389
 30
0.0
 11
-19.57423641119258
 21
6.7322413304924389
 31
0.0
  0
LINE
  5
5411F
  8
0
 62
     0
 10
-19.640527671928819
 20
6.6659500697562013
 30
0.0
 11
-19.640527671928819
 21
6.6659500697562013
 31
0.0
  0
LINE
  5
54120
  8
0
 62
     0
 10
-19.706818932665058
 20
6.5996588090199619
 30
0.0
 11
-19.706818932665058
 21
6.5996588090199619
 31
0.0
  0
LINE
  5
54121
  8
0
 62
     0
 10
-19.773110193401291
 20
6.5333675482837243
 30
0.0
 11
-19.773110193401291
 21
6.5333675482837243
 31
0.0
  0
LINE
  5
54122
  8
0
 62
     0
 10
-19.839401454137541
 20
6.467076287547485
 30
0.0
 11
-19.839401454137541
 21
6.467076287547485
 31
0.0
  0
LINE
  5
54123
  8
0
 62
     0
 10
-19.905692714873769
 20
6.4007850268112474
 30
0.0
 11
-19.905692714873769
 21
6.4007850268112474
 31
0.0
  0
LINE
  5
54124
  8
0
 62
     0
 10
-19.971983975610009
 20
6.334493766075008
 30
0.0
 11
-19.971983975610009
 21
6.334493766075008
 31
0.0
  0
LINE
  5
54125
  8
0
 62
     0
 10
-20.038275236346259
 20
6.2682025053387704
 30
0.0
 11
-20.038275236346259
 21
6.2682025053387704
 31
0.0
  0
LINE
  5
54126
  8
0
 62
     0
 10
-20.104566497082491
 20
6.2019112446025311
 30
0.0
 11
-20.104566497082491
 21
6.2019112446025311
 31
0.0
  0
LINE
  5
54127
  8
0
 62
     0
 10
-20.170857757818741
 20
6.1356199838662926
 30
0.0
 11
-20.170857757818741
 21
6.1356199838662926
 31
0.0
  0
LINE
  5
54128
  8
0
 62
     0
 10
-20.23714901855497
 20
6.069328723130055
 30
0.0
 11
-20.23714901855497
 21
6.069328723130055
 31
0.0
  0
LINE
  5
54129
  8
0
 62
     0
 10
-20.303440279291209
 20
6.0030374623938156
 30
0.0
 11
-20.303440279291209
 21
6.0030374623938156
 31
0.0
  0
LINE
  5
5412A
  8
0
 62
     0
 10
-20.369731540027448
 20
5.936746201657578
 30
0.0
 11
-20.369731540027448
 21
5.936746201657578
 31
0.0
  0
LINE
  5
5412B
  8
0
 62
     0
 10
-20.436022800763691
 20
5.8704549409213387
 30
0.0
 11
-20.436022800763691
 21
5.8704549409213387
 31
0.0
  0
LINE
  5
5412C
  8
0
 62
     0
 10
-20.502314061499931
 20
5.8041636801851011
 30
0.0
 11
-20.502314061499931
 21
5.8041636801851011
 31
0.0
  0
LINE
  5
5412D
  8
0
 62
     0
 10
-20.56860532223617
 20
5.7378724194488617
 30
0.0
 11
-20.56860532223617
 21
5.7378724194488617
 31
0.0
  0
LINE
  5
5412E
  8
0
 62
     0
 10
-20.634896582972409
 20
5.6715811587126241
 30
0.0
 11
-20.634896582972409
 21
5.6715811587126241
 31
0.0
  0
LINE
  5
5412F
  8
0
 62
     0
 10
-18.182119935731571
 20
8.1243578059534585
 30
0.0
 11
-18.182119935731571
 21
8.1243578059534585
 31
0.0
  0
LINE
  5
54130
  8
0
 62
     0
 10
-18.248411196467799
 20
8.0580665452172191
 30
0.0
 11
-18.248411196467799
 21
8.0580665452172191
 31
0.0
  0
LINE
  5
54131
  8
0
 62
     0
 10
-18.314702457204039
 20
7.9917752844809788
 30
0.0
 11
-18.314702457204039
 21
7.9917752844809788
 31
0.0
  0
LINE
  5
54132
  8
0
 62
     0
 10
-18.380993717940282
 20
7.9254840237447413
 30
0.0
 11
-18.380993717940282
 21
7.9254840237447413
 31
0.0
  0
LINE
  5
54133
  8
0
 62
     0
 10
-18.447284978676521
 20
7.8591927630085019
 30
0.0
 11
-18.447284978676521
 21
7.8591927630085019
 31
0.0
  0
LINE
  5
54134
  8
0
 62
     0
 10
-18.51357623941276
 20
7.7929015022722643
 30
0.0
 11
-18.51357623941276
 21
7.7929015022722643
 31
0.0
  0
LINE
  5
54135
  8
0
 62
     0
 10
-18.579867500149
 20
7.7266102415360249
 30
0.0
 11
-18.579867500149
 21
7.7266102415360249
 31
0.0
  0
LINE
  5
54136
  8
0
 62
     0
 10
-20.701187843708649
 20
5.6052898979763839
 30
0.0
 11
-20.701187843708649
 21
5.6052898979763839
 31
0.0
  0
LINE
  5
54137
  8
0
 62
     0
 10
-20.767479104444881
 20
5.5389986372401463
 30
0.0
 11
-20.767479104444881
 21
5.5389986372401463
 31
0.0
  0
LINE
  5
54138
  8
0
 62
     0
 10
-20.833770365181131
 20
5.4727073765039069
 30
0.0
 11
-20.833770365181131
 21
5.4727073765039069
 31
0.0
  0
LINE
  5
54139
  8
0
 62
     0
 10
-20.90006162591736
 20
5.4064161157676693
 30
0.0
 11
-20.90006162591736
 21
5.4064161157676693
 31
0.0
  0
LINE
  5
5413A
  8
0
 62
     0
 10
-20.966352886653599
 20
5.34012485503143
 30
0.0
 11
-20.966352886653599
 21
5.34012485503143
 31
0.0
  0
LINE
  5
5413B
  8
0
 62
     0
 10
-21.032644147389838
 20
5.2738335942951924
 30
0.0
 11
-21.032644147389838
 21
5.2738335942951924
 31
0.0
  0
LINE
  5
5413C
  8
0
 62
     0
 10
-18.811886912725839
 20
7.6271733504316641
 30
0.0
 11
-18.811886912725839
 21
7.6271733504316641
 31
0.0
  0
LINE
  5
5413D
  8
0
 62
     0
 10
-18.878178173462061
 20
7.5608820896954168
 30
0.0
 11
-18.878178173462061
 21
7.5608820896954168
 31
0.0
  0
LINE
  5
5413E
  8
0
 62
     0
 10
-18.944469434198311
 20
7.4945908289591792
 30
0.0
 11
-18.944469434198311
 21
7.4945908289591792
 31
0.0
  0
LINE
  5
5413F
  8
0
 62
     0
 10
-19.01076069493455
 20
7.4282995682229398
 30
0.0
 11
-19.01076069493455
 21
7.4282995682229398
 31
0.0
  0
LINE
  5
54140
  8
0
 62
     0
 10
-19.077051955670779
 20
7.3620083074867022
 30
0.0
 11
-19.077051955670779
 21
7.3620083074867022
 31
0.0
  0
LINE
  5
54141
  8
0
 62
     0
 10
-19.143343216407018
 20
7.2957170467504628
 30
0.0
 11
-19.143343216407018
 21
7.2957170467504628
 31
0.0
  0
LINE
  5
54142
  8
0
 62
     0
 10
-19.209634477143261
 20
7.2294257860142253
 30
0.0
 11
-19.209634477143261
 21
7.2294257860142253
 31
0.0
  0
LINE
  5
54143
  8
0
 62
     0
 10
-19.275925737879501
 20
7.1631345252779859
 30
0.0
 11
-19.275925737879501
 21
7.1631345252779859
 31
0.0
  0
LINE
  5
54144
  8
0
 62
     0
 10
-19.34221699861574
 20
7.0968432645417483
 30
0.0
 11
-19.34221699861574
 21
7.0968432645417483
 31
0.0
  0
LINE
  5
54145
  8
0
 62
     0
 10
-19.408508259351979
 20
7.0305520038055089
 30
0.0
 11
-19.408508259351979
 21
7.0305520038055089
 31
0.0
  0
LINE
  5
54146
  8
0
 62
     0
 10
-19.474799520088219
 20
6.9642607430692713
 30
0.0
 11
-19.474799520088219
 21
6.9642607430692713
 31
0.0
  0
LINE
  5
54147
  8
0
 62
     0
 10
-19.541090780824462
 20
6.897969482333032
 30
0.0
 11
-19.541090780824462
 21
6.897969482333032
 31
0.0
  0
LINE
  5
54148
  8
0
 62
     0
 10
-19.607382041560701
 20
6.8316782215967944
 30
0.0
 11
-19.607382041560701
 21
6.8316782215967944
 31
0.0
  0
LINE
  5
54149
  8
0
 62
     0
 10
-19.67367330229694
 20
6.765386960860555
 30
0.0
 11
-19.67367330229694
 21
6.765386960860555
 31
0.0
  0
LINE
  5
5414A
  8
0
 62
     0
 10
-19.73996456303318
 20
6.6990957001243174
 30
0.0
 11
-19.73996456303318
 21
6.6990957001243174
 31
0.0
  0
LINE
  5
5414B
  8
0
 62
     0
 10
-19.806255823769419
 20
6.6328044393880781
 30
0.0
 11
-19.806255823769419
 21
6.6328044393880781
 31
0.0
  0
LINE
  5
5414C
  8
0
 62
     0
 10
-19.872547084505658
 20
6.5665131786518396
 30
0.0
 11
-19.872547084505658
 21
6.5665131786518396
 31
0.0
  0
LINE
  5
5414D
  8
0
 62
     0
 10
-19.938838345241901
 20
6.5002219179156011
 30
0.0
 11
-19.938838345241901
 21
6.5002219179156011
 31
0.0
  0
LINE
  5
5414E
  8
0
 62
     0
 10
-20.005129605978141
 20
6.4339306571793626
 30
0.0
 11
-20.005129605978141
 21
6.4339306571793626
 31
0.0
  0
LINE
  5
5414F
  8
0
 62
     0
 10
-20.07142086671438
 20
6.367639396443125
 30
0.0
 11
-20.07142086671438
 21
6.367639396443125
 31
0.0
  0
LINE
  5
54150
  8
0
 62
     0
 10
-20.137712127450619
 20
6.3013481357068857
 30
0.0
 11
-20.137712127450619
 21
6.3013481357068857
 31
0.0
  0
LINE
  5
54151
  8
0
 62
     0
 10
-20.204003388186852
 20
6.2350568749706481
 30
0.0
 11
-20.204003388186852
 21
6.2350568749706481
 31
0.0
  0
LINE
  5
54152
  8
0
 62
     0
 10
-20.270294648923102
 20
6.1687656142344087
 30
0.0
 11
-20.270294648923102
 21
6.1687656142344087
 31
0.0
  0
LINE
  5
54153
  8
0
 62
     0
 10
-20.33658590965933
 20
6.1024743534981711
 30
0.0
 11
-20.33658590965933
 21
6.1024743534981711
 31
0.0
  0
LINE
  5
54154
  8
0
 62
     0
 10
-20.40287717039557
 20
6.0361830927619318
 30
0.0
 11
-20.40287717039557
 21
6.0361830927619318
 31
0.0
  0
LINE
  5
54155
  8
0
 62
     0
 10
-20.469168431131809
 20
5.9698918320256942
 30
0.0
 11
-20.469168431131809
 21
5.9698918320256942
 31
0.0
  0
LINE
  5
54156
  8
0
 62
     0
 10
-20.535459691868049
 20
5.9036005712894548
 30
0.0
 11
-20.535459691868049
 21
5.9036005712894548
 31
0.0
  0
LINE
  5
54157
  8
0
 62
     0
 10
-20.601750952604291
 20
5.8373093105532172
 30
0.0
 11
-20.601750952604291
 21
5.8373093105532172
 31
0.0
  0
LINE
  5
54158
  8
0
 62
     0
 10
-20.668042213340531
 20
5.7710180498169779
 30
0.0
 11
-20.668042213340531
 21
5.7710180498169779
 31
0.0
  0
LINE
  5
54159
  8
0
 62
     0
 10
-20.73433347407677
 20
5.7047267890807403
 30
0.0
 11
-20.73433347407677
 21
5.7047267890807403
 31
0.0
  0
LINE
  5
5415A
  8
0
 62
     0
 10
-18.215265566099688
 20
8.2237946970578157
 30
0.0
 11
-18.215265566099688
 21
8.2237946970578157
 31
0.0
  0
LINE
  5
5415B
  8
0
 62
     0
 10
-18.281556826835931
 20
8.1575034363215764
 30
0.0
 11
-18.281556826835931
 21
8.1575034363215764
 31
0.0
  0
LINE
  5
5415C
  8
0
 62
     0
 10
-18.347848087572171
 20
8.091212175585337
 30
0.0
 11
-18.347848087572171
 21
8.091212175585337
 31
0.0
  0
LINE
  5
5415D
  8
0
 62
     0
 10
-18.41413934830841
 20
8.0249209148490976
 30
0.0
 11
-18.41413934830841
 21
8.0249209148490976
 31
0.0
  0
LINE
  5
5415E
  8
0
 62
     0
 10
-18.48043060904465
 20
7.9586296541128592
 30
0.0
 11
-18.48043060904465
 21
7.9586296541128592
 31
0.0
  0
LINE
  5
5415F
  8
0
 62
     0
 10
-18.546721869780889
 20
7.8923383933766198
 30
0.0
 11
-18.546721869780889
 21
7.8923383933766198
 31
0.0
  0
LINE
  5
54160
  8
0
 62
     0
 10
-18.613013130517128
 20
7.8260471326403822
 30
0.0
 11
-18.613013130517128
 21
7.8260471326403822
 31
0.0
  0
LINE
  5
54161
  8
0
 62
     0
 10
-20.80062473481301
 20
5.6384355283445
 30
0.0
 11
-20.80062473481301
 21
5.6384355283445
 31
0.0
  0
LINE
  5
54162
  8
0
 62
     0
 10
-20.866915995549238
 20
5.5721442676082606
 30
0.0
 11
-20.866915995549238
 21
5.5721442676082606
 31
0.0
  0
LINE
  5
54163
  8
0
 62
     0
 10
-20.933207256285488
 20
5.5058530068720231
 30
0.0
 11
-20.933207256285488
 21
5.5058530068720231
 31
0.0
  0
LINE
  5
54164
  8
0
 62
     0
 10
-20.999498517021721
 20
5.4395617461357837
 30
0.0
 11
-20.999498517021721
 21
5.4395617461357837
 31
0.0
  0
LINE
  5
54165
  8
0
 62
     0
 10
-18.845032543093961
 20
7.726610241536024
 30
0.0
 11
-18.845032543093961
 21
7.726610241536024
 31
0.0
  0
LINE
  5
54166
  8
0
 62
     0
 10
-18.9113238038302
 20
7.6603189807997847
 30
0.0
 11
-18.9113238038302
 21
7.6603189807997847
 31
0.0
  0
LINE
  5
54167
  8
0
 62
     0
 10
-18.977615064566422
 20
7.5940277200635382
 30
0.0
 11
-18.977615064566422
 21
7.5940277200635382
 31
0.0
  0
LINE
  5
54168
  8
0
 62
     0
 10
-19.043906325302661
 20
7.5277364593272988
 30
0.0
 11
-19.043906325302661
 21
7.5277364593272988
 31
0.0
  0
LINE
  5
54169
  8
0
 62
     0
 10
-19.1101975860389
 20
7.4614451985910613
 30
0.0
 11
-19.1101975860389
 21
7.4614451985910613
 31
0.0
  0
LINE
  5
5416A
  8
0
 62
     0
 10
-19.17648884677514
 20
7.3951539378548219
 30
0.0
 11
-19.17648884677514
 21
7.3951539378548219
 31
0.0
  0
LINE
  5
5416B
  8
0
 62
     0
 10
-19.242780107511379
 20
7.3288626771185843
 30
0.0
 11
-19.242780107511379
 21
7.3288626771185843
 31
0.0
  0
LINE
  5
5416C
  8
0
 62
     0
 10
-19.309071368247618
 20
7.2625714163823449
 30
0.0
 11
-19.309071368247618
 21
7.2625714163823449
 31
0.0
  0
LINE
  5
5416D
  8
0
 62
     0
 10
-19.375362628983861
 20
7.1962801556461073
 30
0.0
 11
-19.375362628983861
 21
7.1962801556461073
 31
0.0
  0
LINE
  5
5416E
  8
0
 62
     0
 10
-19.441653889720101
 20
7.129988894909868
 30
0.0
 11
-19.441653889720101
 21
7.129988894909868
 31
0.0
  0
LINE
  5
5416F
  8
0
 62
     0
 10
-19.50794515045634
 20
7.0636976341736304
 30
0.0
 11
-19.50794515045634
 21
7.0636976341736304
 31
0.0
  0
LINE
  5
54170
  8
0
 62
     0
 10
-19.57423641119258
 20
6.997406373437391
 30
0.0
 11
-19.57423641119258
 21
6.997406373437391
 31
0.0
  0
LINE
  5
54171
  8
0
 62
     0
 10
-19.640527671928819
 20
6.9311151127011534
 30
0.0
 11
-19.640527671928819
 21
6.9311151127011534
 31
0.0
  0
LINE
  5
54172
  8
0
 62
     0
 10
-19.706818932665058
 20
6.8648238519649141
 30
0.0
 11
-19.706818932665058
 21
6.8648238519649141
 31
0.0
  0
LINE
  5
54173
  8
0
 62
     0
 10
-19.773110193401291
 20
6.7985325912286756
 30
0.0
 11
-19.773110193401291
 21
6.7985325912286756
 31
0.0
  0
LINE
  5
54174
  8
0
 62
     0
 10
-19.839401454137541
 20
6.732241330492438
 30
0.0
 11
-19.839401454137541
 21
6.732241330492438
 31
0.0
  0
LINE
  5
54175
  8
0
 62
     0
 10
-19.905692714873769
 20
6.6659500697561986
 30
0.0
 11
-19.905692714873769
 21
6.6659500697561986
 31
0.0
  0
LINE
  5
54176
  8
0
 62
     0
 10
-19.971983975610009
 20
6.599658809019961
 30
0.0
 11
-19.971983975610009
 21
6.599658809019961
 31
0.0
  0
LINE
  5
54177
  8
0
 62
     0
 10
-20.038275236346259
 20
6.5333675482837217
 30
0.0
 11
-20.038275236346259
 21
6.5333675482837217
 31
0.0
  0
LINE
  5
54178
  8
0
 62
     0
 10
-20.104566497082491
 20
6.4670762875474841
 30
0.0
 11
-20.104566497082491
 21
6.4670762875474841
 31
0.0
  0
LINE
  5
54179
  8
0
 62
     0
 10
-20.170857757818741
 20
6.4007850268112447
 30
0.0
 11
-20.170857757818741
 21
6.4007850268112447
 31
0.0
  0
LINE
  5
5417A
  8
0
 62
     0
 10
-20.23714901855497
 20
6.3344937660750071
 30
0.0
 11
-20.23714901855497
 21
6.3344937660750071
 31
0.0
  0
LINE
  5
5417B
  8
0
 62
     0
 10
-20.303440279291209
 20
6.2682025053387678
 30
0.0
 11
-20.303440279291209
 21
6.2682025053387678
 31
0.0
  0
LINE
  5
5417C
  8
0
 62
     0
 10
-20.369731540027448
 20
6.2019112446025302
 30
0.0
 11
-20.369731540027448
 21
6.2019112446025302
 31
0.0
  0
LINE
  5
5417D
  8
0
 62
     0
 10
-20.436022800763691
 20
6.1356199838662908
 30
0.0
 11
-20.436022800763691
 21
6.1356199838662908
 31
0.0
  0
LINE
  5
5417E
  8
0
 62
     0
 10
-20.502314061499931
 20
6.0693287231300532
 30
0.0
 11
-20.502314061499931
 21
6.0693287231300532
 31
0.0
  0
LINE
  5
5417F
  8
0
 62
     0
 10
-20.56860532223617
 20
6.0030374623938139
 30
0.0
 11
-20.56860532223617
 21
6.0030374623938139
 31
0.0
  0
LINE
  5
54180
  8
0
 62
     0
 10
-20.634896582972409
 20
5.9367462016575763
 30
0.0
 11
-20.634896582972409
 21
5.9367462016575763
 31
0.0
  0
LINE
  5
54181
  8
0
 62
     0
 10
-20.701187843708649
 20
5.8704549409213369
 30
0.0
 11
-20.701187843708649
 21
5.8704549409213369
 31
0.0
  0
LINE
  5
54182
  8
0
 62
     0
 10
-20.767479104444892
 20
5.8041636801850993
 30
0.0
 11
-20.767479104444892
 21
5.8041636801850993
 31
0.0
  0
LINE
  5
54183
  8
0
 62
     0
 10
-18.314702457204039
 20
8.2569403274259372
 30
0.0
 11
-18.314702457204039
 21
8.2569403274259372
 31
0.0
  0
LINE
  5
54184
  8
0
 62
     0
 10
-18.380993717940282
 20
8.1906490666896978
 30
0.0
 11
-18.380993717940282
 21
8.1906490666896978
 31
0.0
  0
LINE
  5
54185
  8
0
 62
     0
 10
-18.447284978676521
 20
8.1243578059534585
 30
0.0
 11
-18.447284978676521
 21
8.1243578059534585
 31
0.0
  0
LINE
  5
54186
  8
0
 62
     0
 10
-18.51357623941276
 20
8.0580665452172191
 30
0.0
 11
-18.51357623941276
 21
8.0580665452172191
 31
0.0
  0
LINE
  5
54187
  8
0
 62
     0
 10
-18.579867500149
 20
7.9917752844809797
 30
0.0
 11
-18.579867500149
 21
7.9917752844809797
 31
0.0
  0
LINE
  5
54188
  8
0
 62
     0
 10
-18.646158760885239
 20
7.9254840237447421
 30
0.0
 11
-18.646158760885239
 21
7.9254840237447421
 31
0.0
  0
LINE
  5
54189
  8
0
 62
     0
 10
-18.712450021621478
 20
7.8591927630085028
 30
0.0
 11
-18.712450021621478
 21
7.8591927630085028
 31
0.0
  0
LINE
  5
5418A
  8
0
 62
     0
 10
-20.833770365181131
 20
5.7378724194488591
 30
0.0
 11
-20.833770365181131
 21
5.7378724194488591
 31
0.0
  0
LINE
  5
5418B
  8
0
 62
     0
 10
-20.90006162591737
 20
5.6715811587126197
 30
0.0
 11
-20.90006162591737
 21
5.6715811587126197
 31
0.0
  0
LINE
  5
5418C
  8
0
 62
     0
 10
-20.966352886653599
 20
5.6052898979763821
 30
0.0
 11
-20.966352886653599
 21
5.6052898979763821
 31
0.0
  0
LINE
  5
5418D
  8
0
 62
     0
 10
-21.032644147389849
 20
5.5389986372401427
 30
0.0
 11
-21.032644147389849
 21
5.5389986372401427
 31
0.0
  0
LINE
  5
5418E
  8
0
 62
     0
 10
-18.944469434198322
 20
7.7597558719041411
 30
0.0
 11
-18.944469434198322
 21
7.7597558719041411
 31
0.0
  0
LINE
  5
5418F
  8
0
 62
     0
 10
-19.01076069493454
 20
7.6934646111678973
 30
0.0
 11
-19.01076069493454
 21
7.6934646111678973
 31
0.0
  0
LINE
  5
54190
  8
0
 62
     0
 10
-19.077051955670779
 20
7.6271733504316579
 30
0.0
 11
-19.077051955670779
 21
7.6271733504316579
 31
0.0
  0
LINE
  5
54191
  8
0
 62
     0
 10
-19.143343216407018
 20
7.5608820896954203
 30
0.0
 11
-19.143343216407018
 21
7.5608820896954203
 31
0.0
  0
LINE
  5
54192
  8
0
 62
     0
 10
-19.209634477143261
 20
7.4945908289591809
 30
0.0
 11
-19.209634477143261
 21
7.4945908289591809
 31
0.0
  0
LINE
  5
54193
  8
0
 62
     0
 10
-19.275925737879501
 20
7.4282995682229433
 30
0.0
 11
-19.275925737879501
 21
7.4282995682229433
 31
0.0
  0
LINE
  5
54194
  8
0
 62
     0
 10
-19.34221699861574
 20
7.362008307486704
 30
0.0
 11
-19.34221699861574
 21
7.362008307486704
 31
0.0
  0
LINE
  5
54195
  8
0
 62
     0
 10
-19.408508259351979
 20
7.2957170467504664
 30
0.0
 11
-19.408508259351979
 21
7.2957170467504664
 31
0.0
  0
LINE
  5
54196
  8
0
 62
     0
 10
-19.474799520088219
 20
7.229425786014227
 30
0.0
 11
-19.474799520088219
 21
7.229425786014227
 31
0.0
  0
LINE
  5
54197
  8
0
 62
     0
 10
-19.541090780824462
 20
7.1631345252779894
 30
0.0
 11
-19.541090780824462
 21
7.1631345252779894
 31
0.0
  0
LINE
  5
54198
  8
0
 62
     0
 10
-19.607382041560701
 20
7.0968432645417501
 30
0.0
 11
-19.607382041560701
 21
7.0968432645417501
 31
0.0
  0
LINE
  5
54199
  8
0
 62
     0
 10
-19.67367330229693
 20
7.0305520038055116
 30
0.0
 11
-19.67367330229693
 21
7.0305520038055116
 31
0.0
  0
LINE
  5
5419A
  8
0
 62
     0
 10
-19.739964563033169
 20
6.964260743069274
 30
0.0
 11
-19.739964563033169
 21
6.964260743069274
 31
0.0
  0
LINE
  5
5419B
  8
0
 62
     0
 10
-19.806255823769408
 20
6.8979694823330346
 30
0.0
 11
-19.806255823769408
 21
6.8979694823330346
 31
0.0
  0
LINE
  5
5419C
  8
0
 62
     0
 10
-19.872547084505651
 20
6.8316782215967971
 30
0.0
 11
-19.872547084505651
 21
6.8316782215967971
 31
0.0
  0
LINE
  5
5419D
  8
0
 62
     0
 10
-19.938838345241891
 20
6.7653869608605577
 30
0.0
 11
-19.938838345241891
 21
6.7653869608605577
 31
0.0
  0
LINE
  5
5419E
  8
0
 62
     0
 10
-20.00512960597813
 20
6.6990957001243201
 30
0.0
 11
-20.00512960597813
 21
6.6990957001243201
 31
0.0
  0
LINE
  5
5419F
  8
0
 62
     0
 10
-20.07142086671438
 20
6.6328044393880807
 30
0.0
 11
-20.07142086671438
 21
6.6328044393880807
 31
0.0
  0
LINE
  5
541A0
  8
0
 62
     0
 10
-20.137712127450609
 20
6.5665131786518431
 30
0.0
 11
-20.137712127450609
 21
6.5665131786518431
 31
0.0
  0
LINE
  5
541A1
  8
0
 62
     0
 10
-20.204003388186852
 20
6.5002219179156038
 30
0.0
 11
-20.204003388186852
 21
6.5002219179156038
 31
0.0
  0
LINE
  5
541A2
  8
0
 62
     0
 10
-20.270294648923091
 20
6.4339306571793662
 30
0.0
 11
-20.270294648923091
 21
6.4339306571793662
 31
0.0
  0
LINE
  5
541A3
  8
0
 62
     0
 10
-20.33658590965933
 20
6.3676393964431268
 30
0.0
 11
-20.33658590965933
 21
6.3676393964431268
 31
0.0
  0
LINE
  5
541A4
  8
0
 62
     0
 10
-20.40287717039557
 20
6.3013481357068892
 30
0.0
 11
-20.40287717039557
 21
6.3013481357068892
 31
0.0
  0
LINE
  5
541A5
  8
0
 62
     0
 10
-20.469168431131809
 20
6.2350568749706499
 30
0.0
 11
-20.469168431131809
 21
6.2350568749706499
 31
0.0
  0
LINE
  5
541A6
  8
0
 62
     0
 10
-20.535459691868049
 20
6.1687656142344123
 30
0.0
 11
-20.535459691868049
 21
6.1687656142344123
 31
0.0
  0
LINE
  5
541A7
  8
0
 62
     0
 10
-20.601750952604291
 20
6.1024743534981729
 30
0.0
 11
-20.601750952604291
 21
6.1024743534981729
 31
0.0
  0
LINE
  5
541A8
  8
0
 62
     0
 10
-20.668042213340531
 20
6.0361830927619353
 30
0.0
 11
-20.668042213340531
 21
6.0361830927619353
 31
0.0
  0
LINE
  5
541A9
  8
0
 62
     0
 10
-20.73433347407677
 20
5.969891832025696
 30
0.0
 11
-20.73433347407677
 21
5.969891832025696
 31
0.0
  0
LINE
  5
541AA
  8
0
 62
     0
 10
-20.80062473481301
 20
5.9036005712894584
 30
0.0
 11
-20.80062473481301
 21
5.9036005712894584
 31
0.0
  0
LINE
  5
541AB
  8
0
 62
     0
 10
-20.866915995549238
 20
5.837309310553219
 30
0.0
 11
-20.866915995549238
 21
5.837309310553219
 31
0.0
  0
LINE
  5
541AC
  8
0
 62
     0
 10
-18.41413934830841
 20
8.2900859577940551
 30
0.0
 11
-18.41413934830841
 21
8.2900859577940551
 31
0.0
  0
LINE
  5
541AD
  8
0
 62
     0
 10
-18.480430609044639
 20
8.2237946970578157
 30
0.0
 11
-18.480430609044639
 21
8.2237946970578157
 31
0.0
  0
LINE
  5
541AE
  8
0
 62
     0
 10
-18.546721869780882
 20
8.1575034363215764
 30
0.0
 11
-18.546721869780882
 21
8.1575034363215764
 31
0.0
  0
LINE
  5
541AF
  8
0
 62
     0
 10
-18.613013130517121
 20
8.091212175585337
 30
0.0
 11
-18.613013130517121
 21
8.091212175585337
 31
0.0
  0
LINE
  5
541B0
  8
0
 62
     0
 10
-18.679304391253361
 20
8.0249209148490976
 30
0.0
 11
-18.679304391253361
 21
8.0249209148490976
 31
0.0
  0
LINE
  5
541B1
  8
0
 62
     0
 10
-18.7455956519896
 20
7.9586296541128592
 30
0.0
 11
-18.7455956519896
 21
7.9586296541128592
 31
0.0
  0
LINE
  5
541B2
  8
0
 62
     0
 10
-18.811886912725839
 20
7.8923383933766198
 30
0.0
 11
-18.811886912725839
 21
7.8923383933766198
 31
0.0
  0
LINE
  5
541B3
  8
0
 62
     0
 10
-20.933207256285488
 20
5.771018049816977
 30
0.0
 11
-20.933207256285488
 21
5.771018049816977
 31
0.0
  0
LINE
  5
541B4
  8
0
 62
     0
 10
-20.999498517021731
 20
5.7047267890807394
 30
0.0
 11
-20.999498517021731
 21
5.7047267890807394
 31
0.0
  0
LINE
  5
541B5
  8
0
 62
     0
 10
-19.043906325302679
 20
7.7929015022722607
 30
0.0
 11
-19.043906325302679
 21
7.7929015022722607
 31
0.0
  0
LINE
  5
541B6
  8
0
 62
     0
 10
-19.1101975860389
 20
7.7266102415360116
 30
0.0
 11
-19.1101975860389
 21
7.7266102415360116
 31
0.0
  0
LINE
  5
541B7
  8
0
 62
     0
 10
-19.17648884677514
 20
7.660318980799774
 30
0.0
 11
-19.17648884677514
 21
7.660318980799774
 31
0.0
  0
LINE
  5
541B8
  8
0
 62
     0
 10
-19.242780107511379
 20
7.5940277200635347
 30
0.0
 11
-19.242780107511379
 21
7.5940277200635347
 31
0.0
  0
LINE
  5
541B9
  8
0
 62
     0
 10
-19.309071368247618
 20
7.5277364593272971
 30
0.0
 11
-19.309071368247618
 21
7.5277364593272971
 31
0.0
  0
LINE
  5
541BA
  8
0
 62
     0
 10
-19.375362628983861
 20
7.4614451985910577
 30
0.0
 11
-19.375362628983861
 21
7.4614451985910577
 31
0.0
  0
LINE
  5
541BB
  8
0
 62
     0
 10
-19.441653889720101
 20
7.3951539378548201
 30
0.0
 11
-19.441653889720101
 21
7.3951539378548201
 31
0.0
  0
LINE
  5
541BC
  8
0
 62
     0
 10
-19.50794515045634
 20
7.3288626771185807
 30
0.0
 11
-19.50794515045634
 21
7.3288626771185807
 31
0.0
  0
LINE
  5
541BD
  8
0
 62
     0
 10
-19.57423641119258
 20
7.2625714163823432
 30
0.0
 11
-19.57423641119258
 21
7.2625714163823432
 31
0.0
  0
LINE
  5
541BE
  8
0
 62
     0
 10
-19.640527671928819
 20
7.1962801556461038
 30
0.0
 11
-19.640527671928819
 21
7.1962801556461038
 31
0.0
  0
LINE
  5
541BF
  8
0
 62
     0
 10
-19.706818932665058
 20
7.1299888949098662
 30
0.0
 11
-19.706818932665058
 21
7.1299888949098662
 31
0.0
  0
LINE
  5
541C0
  8
0
 62
     0
 10
-19.773110193401291
 20
7.0636976341736268
 30
0.0
 11
-19.773110193401291
 21
7.0636976341736268
 31
0.0
  0
LINE
  5
541C1
  8
0
 62
     0
 10
-19.839401454137541
 20
6.9974063734373892
 30
0.0
 11
-19.839401454137541
 21
6.9974063734373892
 31
0.0
  0
LINE
  5
541C2
  8
0
 62
     0
 10
-19.905692714873769
 20
6.9311151127011499
 30
0.0
 11
-19.905692714873769
 21
6.9311151127011499
 31
0.0
  0
LINE
  5
541C3
  8
0
 62
     0
 10
-19.971983975610009
 20
6.8648238519649123
 30
0.0
 11
-19.971983975610009
 21
6.8648238519649123
 31
0.0
  0
LINE
  5
541C4
  8
0
 62
     0
 10
-20.038275236346259
 20
6.7985325912286729
 30
0.0
 11
-20.038275236346259
 21
6.7985325912286729
 31
0.0
  0
LINE
  5
541C5
  8
0
 62
     0
 10
-20.104566497082491
 20
6.7322413304924353
 30
0.0
 11
-20.104566497082491
 21
6.7322413304924353
 31
0.0
  0
LINE
  5
541C6
  8
0
 62
     0
 10
-20.170857757818741
 20
6.665950069756196
 30
0.0
 11
-20.170857757818741
 21
6.665950069756196
 31
0.0
  0
LINE
  5
541C7
  8
0
 62
     0
 10
-20.23714901855497
 20
6.5996588090199584
 30
0.0
 11
-20.23714901855497
 21
6.5996588090199584
 31
0.0
  0
LINE
  5
541C8
  8
0
 62
     0
 10
-20.303440279291209
 20
6.533367548283719
 30
0.0
 11
-20.303440279291209
 21
6.533367548283719
 31
0.0
  0
LINE
  5
541C9
  8
0
 62
     0
 10
-20.369731540027448
 20
6.4670762875474814
 30
0.0
 11
-20.369731540027448
 21
6.4670762875474814
 31
0.0
  0
LINE
  5
541CA
  8
0
 62
     0
 10
-20.436022800763691
 20
6.4007850268112421
 30
0.0
 11
-20.436022800763691
 21
6.4007850268112421
 31
0.0
  0
LINE
  5
541CB
  8
0
 62
     0
 10
-20.502314061499931
 20
6.3344937660750036
 30
0.0
 11
-20.502314061499931
 21
6.3344937660750036
 31
0.0
  0
LINE
  5
541CC
  8
0
 62
     0
 10
-20.56860532223617
 20
6.2682025053387651
 30
0.0
 11
-20.56860532223617
 21
6.2682025053387651
 31
0.0
  0
LINE
  5
541CD
  8
0
 62
     0
 10
-20.634896582972409
 20
6.2019112446025266
 30
0.0
 11
-20.634896582972409
 21
6.2019112446025266
 31
0.0
  0
LINE
  5
541CE
  8
0
 62
     0
 10
-20.701187843708649
 20
6.135619983866289
 30
0.0
 11
-20.701187843708649
 21
6.135619983866289
 31
0.0
  0
LINE
  5
541CF
  8
0
 62
     0
 10
-20.767479104444892
 20
6.0693287231300497
 30
0.0
 11
-20.767479104444892
 21
6.0693287231300497
 31
0.0
  0
LINE
  5
541D0
  8
0
 62
     0
 10
-20.833770365181131
 20
6.0030374623938121
 30
0.0
 11
-20.833770365181131
 21
6.0030374623938121
 31
0.0
  0
LINE
  5
541D1
  8
0
 62
     0
 10
-20.90006162591737
 20
5.9367462016575727
 30
0.0
 11
-20.90006162591737
 21
5.9367462016575727
 31
0.0
  0
LINE
  5
541D2
  8
0
 62
     0
 10
-20.966352886653599
 20
5.8704549409213351
 30
0.0
 11
-20.966352886653599
 21
5.8704549409213351
 31
0.0
  0
LINE
  5
541D3
  8
0
 62
     0
 10
-18.51357623941276
 20
8.3232315881621748
 30
0.0
 11
-18.51357623941276
 21
8.3232315881621748
 31
0.0
  0
LINE
  5
541D4
  8
0
 62
     0
 10
-18.579867500149
 20
8.2569403274259354
 30
0.0
 11
-18.579867500149
 21
8.2569403274259354
 31
0.0
  0
LINE
  5
541D5
  8
0
 62
     0
 10
-18.646158760885239
 20
8.1906490666896961
 30
0.0
 11
-18.646158760885239
 21
8.1906490666896961
 31
0.0
  0
LINE
  5
541D6
  8
0
 62
     0
 10
-18.712450021621478
 20
8.1243578059534567
 30
0.0
 11
-18.712450021621478
 21
8.1243578059534567
 31
0.0
  0
LINE
  5
541D7
  8
0
 62
     0
 10
-18.778741282357721
 20
8.0580665452172173
 30
0.0
 11
-18.778741282357721
 21
8.0580665452172173
 31
0.0
  0
LINE
  5
541D8
  8
0
 62
     0
 10
-18.845032543093961
 20
7.991775284480978
 30
0.0
 11
-18.845032543093961
 21
7.991775284480978
 31
0.0
  0
LINE
  5
541D9
  8
0
 62
     0
 10
-18.9113238038302
 20
7.9254840237447404
 30
0.0
 11
-18.9113238038302
 21
7.9254840237447404
 31
0.0
  0
LINE
  5
541DA
  8
0
 62
     0
 10
-21.032644147389838
 20
5.8041636801851002
 30
0.0
 11
-21.032644147389838
 21
5.8041636801851002
 31
0.0
  0
LINE
  5
541DB
  8
0
 62
     0
 10
-19.143343216407029
 20
7.8260471326403831
 30
0.0
 11
-19.143343216407029
 21
7.8260471326403831
 31
0.0
  0
LINE
  5
541DC
  8
0
 62
     0
 10
-18.546721869780882
 20
8.4226684792665374
 30
0.0
 11
-18.546721869780882
 21
8.4226684792665374
 31
0.0
  0
LINE
  5
541DD
  8
0
 62
     0
 10
-18.613013130517121
 20
8.356377218530298
 30
0.0
 11
-18.613013130517121
 21
8.356377218530298
 31
0.0
  0
LINE
  5
541DE
  8
0
 62
     0
 10
-18.679304391253361
 20
8.2900859577940587
 30
0.0
 11
-18.679304391253361
 21
8.2900859577940587
 31
0.0
  0
LINE
  5
541DF
  8
0
 62
     0
 10
-18.7455956519896
 20
8.2237946970578193
 30
0.0
 11
-18.7455956519896
 21
8.2237946970578193
 31
0.0
  0
LINE
  5
541E0
  8
0
 62
     0
 10
-18.811886912725839
 20
8.1575034363215781
 30
0.0
 11
-18.811886912725839
 21
8.1575034363215781
 31
0.0
  0
LINE
  5
541E1
  8
0
 62
     0
 10
-18.878178173462079
 20
8.0912121755853406
 30
0.0
 11
-18.878178173462079
 21
8.0912121755853406
 31
0.0
  0
LINE
  5
541E2
  8
0
 62
     0
 10
-18.944469434198322
 20
8.0249209148491012
 30
0.0
 11
-18.944469434198322
 21
8.0249209148491012
 31
0.0
  0
LINE
  5
541E3
  8
0
 62
     0
 10
-19.010760694934561
 20
7.9586296541128609
 30
0.0
 11
-19.010760694934561
 21
7.9586296541128609
 31
0.0
  0
LINE
  5
541E4
  8
0
 62
     0
 10
-19.209634477143261
 20
7.7597558719041366
 30
0.0
 11
-19.209634477143261
 21
7.7597558719041366
 31
0.0
  0
LINE
  5
541E5
  8
0
 62
     0
 10
-19.275925737879501
 20
7.693464611167899
 30
0.0
 11
-19.275925737879501
 21
7.693464611167899
 31
0.0
  0
LINE
  5
541E6
  8
0
 62
     0
 10
-19.34221699861574
 20
7.6271733504316597
 30
0.0
 11
-19.34221699861574
 21
7.6271733504316597
 31
0.0
  0
LINE
  5
541E7
  8
0
 62
     0
 10
-19.408508259351979
 20
7.5608820896954221
 30
0.0
 11
-19.408508259351979
 21
7.5608820896954221
 31
0.0
  0
LINE
  5
541E8
  8
0
 62
     0
 10
-19.474799520088219
 20
7.4945908289591827
 30
0.0
 11
-19.474799520088219
 21
7.4945908289591827
 31
0.0
  0
LINE
  5
541E9
  8
0
 62
     0
 10
-19.541090780824462
 20
7.4282995682229451
 30
0.0
 11
-19.541090780824462
 21
7.4282995682229451
 31
0.0
  0
LINE
  5
541EA
  8
0
 62
     0
 10
-19.607382041560701
 20
7.3620083074867058
 30
0.0
 11
-19.607382041560701
 21
7.3620083074867058
 31
0.0
  0
LINE
  5
541EB
  8
0
 62
     0
 10
-19.67367330229693
 20
7.2957170467504682
 30
0.0
 11
-19.67367330229693
 21
7.2957170467504682
 31
0.0
  0
LINE
  5
541EC
  8
0
 62
     0
 10
-19.739964563033169
 20
7.2294257860142288
 30
0.0
 11
-19.739964563033169
 21
7.2294257860142288
 31
0.0
  0
LINE
  5
541ED
  8
0
 62
     0
 10
-19.806255823769408
 20
7.1631345252779912
 30
0.0
 11
-19.806255823769408
 21
7.1631345252779912
 31
0.0
  0
LINE
  5
541EE
  8
0
 62
     0
 10
-19.872547084505651
 20
7.0968432645417519
 30
0.0
 11
-19.872547084505651
 21
7.0968432645417519
 31
0.0
  0
LINE
  5
541EF
  8
0
 62
     0
 10
-19.938838345241891
 20
7.0305520038055143
 30
0.0
 11
-19.938838345241891
 21
7.0305520038055143
 31
0.0
  0
LINE
  5
541F0
  8
0
 62
     0
 10
-20.00512960597813
 20
6.9642607430692749
 30
0.0
 11
-20.00512960597813
 21
6.9642607430692749
 31
0.0
  0
LINE
  5
541F1
  8
0
 62
     0
 10
-20.07142086671438
 20
6.8979694823330373
 30
0.0
 11
-20.07142086671438
 21
6.8979694823330373
 31
0.0
  0
LINE
  5
541F2
  8
0
 62
     0
 10
-20.137712127450609
 20
6.8316782215967979
 30
0.0
 11
-20.137712127450609
 21
6.8316782215967979
 31
0.0
  0
LINE
  5
541F3
  8
0
 62
     0
 10
-20.204003388186852
 20
6.7653869608605604
 30
0.0
 11
-20.204003388186852
 21
6.7653869608605604
 31
0.0
  0
LINE
  5
541F4
  8
0
 62
     0
 10
-20.270294648923091
 20
6.699095700124321
 30
0.0
 11
-20.270294648923091
 21
6.699095700124321
 31
0.0
  0
LINE
  5
541F5
  8
0
 62
     0
 10
-20.33658590965933
 20
6.6328044393880834
 30
0.0
 11
-20.33658590965933
 21
6.6328044393880834
 31
0.0
  0
LINE
  5
541F6
  8
0
 62
     0
 10
-20.40287717039557
 20
6.566513178651844
 30
0.0
 11
-20.40287717039557
 21
6.566513178651844
 31
0.0
  0
LINE
  5
541F7
  8
0
 62
     0
 10
-20.469168431131809
 20
6.5002219179156064
 30
0.0
 11
-20.469168431131809
 21
6.5002219179156064
 31
0.0
  0
LINE
  5
541F8
  8
0
 62
     0
 10
-20.535459691868049
 20
6.4339306571793671
 30
0.0
 11
-20.535459691868049
 21
6.4339306571793671
 31
0.0
  0
LINE
  5
541F9
  8
0
 62
     0
 10
-20.601750952604291
 20
6.3676393964431286
 30
0.0
 11
-20.601750952604291
 21
6.3676393964431286
 31
0.0
  0
LINE
  5
541FA
  8
0
 62
     0
 10
-20.668042213340531
 20
6.301348135706891
 30
0.0
 11
-20.668042213340531
 21
6.301348135706891
 31
0.0
  0
LINE
  5
541FB
  8
0
 62
     0
 10
-20.73433347407677
 20
6.2350568749706516
 30
0.0
 11
-20.73433347407677
 21
6.2350568749706516
 31
0.0
  0
LINE
  5
541FC
  8
0
 62
     0
 10
-20.80062473481301
 20
6.1687656142344141
 30
0.0
 11
-20.80062473481301
 21
6.1687656142344141
 31
0.0
  0
LINE
  5
541FD
  8
0
 62
     0
 10
-20.866915995549238
 20
6.1024743534981747
 30
0.0
 11
-20.866915995549238
 21
6.1024743534981747
 31
0.0
  0
LINE
  5
541FE
  8
0
 62
     0
 10
-20.933207256285488
 20
6.0361830927619371
 30
0.0
 11
-20.933207256285488
 21
6.0361830927619371
 31
0.0
  0
LINE
  5
541FF
  8
0
 62
     0
 10
-19.24278010751139
 20
7.8591927630085001
 30
0.0
 11
-19.24278010751139
 21
7.8591927630085001
 31
0.0
  0
LINE
  5
54200
  8
0
 62
     0
 10
-18.646158760885239
 20
8.4558141096346535
 30
0.0
 11
-18.646158760885239
 21
8.4558141096346535
 31
0.0
  0
LINE
  5
54201
  8
0
 62
     0
 10
-18.712450021621478
 20
8.3895228488984142
 30
0.0
 11
-18.712450021621478
 21
8.3895228488984142
 31
0.0
  0
LINE
  5
54202
  8
0
 62
     0
 10
-18.778741282357721
 20
8.3232315881621748
 30
0.0
 11
-18.778741282357721
 21
8.3232315881621748
 31
0.0
  0
LINE
  5
54203
  8
0
 62
     0
 10
-18.845032543093961
 20
8.2569403274259354
 30
0.0
 11
-18.845032543093961
 21
8.2569403274259354
 31
0.0
  0
LINE
  5
54204
  8
0
 62
     0
 10
-18.9113238038302
 20
8.1906490666896961
 30
0.0
 11
-18.9113238038302
 21
8.1906490666896961
 31
0.0
  0
LINE
  5
54205
  8
0
 62
     0
 10
-18.977615064566439
 20
8.1243578059534567
 30
0.0
 11
-18.977615064566439
 21
8.1243578059534567
 31
0.0
  0
LINE
  5
54206
  8
0
 62
     0
 10
-19.043906325302679
 20
8.0580665452172173
 30
0.0
 11
-19.043906325302679
 21
8.0580665452172173
 31
0.0
  0
LINE
  5
54207
  8
0
 62
     0
 10
-19.309071368247618
 20
7.792901502272251
 30
0.0
 11
-19.309071368247618
 21
7.792901502272251
 31
0.0
  0
LINE
  5
54208
  8
0
 62
     0
 10
-19.375362628983861
 20
7.7266102415360134
 30
0.0
 11
-19.375362628983861
 21
7.7266102415360134
 31
0.0
  0
LINE
  5
54209
  8
0
 62
     0
 10
-19.441653889720101
 20
7.660318980799774
 30
0.0
 11
-19.441653889720101
 21
7.660318980799774
 31
0.0
  0
LINE
  5
5420A
  8
0
 62
     0
 10
-19.50794515045634
 20
7.5940277200635364
 30
0.0
 11
-19.50794515045634
 21
7.5940277200635364
 31
0.0
  0
LINE
  5
5420B
  8
0
 62
     0
 10
-19.57423641119258
 20
7.5277364593272971
 30
0.0
 11
-19.57423641119258
 21
7.5277364593272971
 31
0.0
  0
LINE
  5
5420C
  8
0
 62
     0
 10
-19.640527671928819
 20
7.4614451985910586
 30
0.0
 11
-19.640527671928819
 21
7.4614451985910586
 31
0.0
  0
LINE
  5
5420D
  8
0
 62
     0
 10
-19.706818932665058
 20
7.395153937854821
 30
0.0
 11
-19.706818932665058
 21
7.395153937854821
 31
0.0
  0
LINE
  5
5420E
  8
0
 62
     0
 10
-19.773110193401301
 20
7.3288626771185816
 30
0.0
 11
-19.773110193401301
 21
7.3288626771185816
 31
0.0
  0
LINE
  5
5420F
  8
0
 62
     0
 10
-19.839401454137541
 20
7.262571416382344
 30
0.0
 11
-19.839401454137541
 21
7.262571416382344
 31
0.0
  0
LINE
  5
54210
  8
0
 62
     0
 10
-19.90569271487378
 20
7.1962801556461047
 30
0.0
 11
-19.90569271487378
 21
7.1962801556461047
 31
0.0
  0
LINE
  5
54211
  8
0
 62
     0
 10
-19.971983975610019
 20
7.1299888949098671
 30
0.0
 11
-19.971983975610019
 21
7.1299888949098671
 31
0.0
  0
LINE
  5
54212
  8
0
 62
     0
 10
-20.038275236346259
 20
7.0636976341736277
 30
0.0
 11
-20.038275236346259
 21
7.0636976341736277
 31
0.0
  0
LINE
  5
54213
  8
0
 62
     0
 10
-20.104566497082502
 20
6.9974063734373901
 30
0.0
 11
-20.104566497082502
 21
6.9974063734373901
 31
0.0
  0
LINE
  5
54214
  8
0
 62
     0
 10
-20.170857757818741
 20
6.9311151127011508
 30
0.0
 11
-20.170857757818741
 21
6.9311151127011508
 31
0.0
  0
LINE
  5
54215
  8
0
 62
     0
 10
-20.23714901855498
 20
6.8648238519649132
 30
0.0
 11
-20.23714901855498
 21
6.8648238519649132
 31
0.0
  0
LINE
  5
54216
  8
0
 62
     0
 10
-20.30344027929122
 20
6.7985325912286738
 30
0.0
 11
-20.30344027929122
 21
6.7985325912286738
 31
0.0
  0
LINE
  5
54217
  8
0
 62
     0
 10
-20.369731540027459
 20
6.7322413304924362
 30
0.0
 11
-20.369731540027459
 21
6.7322413304924362
 31
0.0
  0
LINE
  5
54218
  8
0
 62
     0
 10
-20.436022800763698
 20
6.6659500697561969
 30
0.0
 11
-20.436022800763698
 21
6.6659500697561969
 31
0.0
  0
LINE
  5
54219
  8
0
 62
     0
 10
-20.502314061499931
 20
6.5996588090199593
 30
0.0
 11
-20.502314061499931
 21
6.5996588090199593
 31
0.0
  0
LINE
  5
5421A
  8
0
 62
     0
 10
-20.56860532223617
 20
6.5333675482837199
 30
0.0
 11
-20.56860532223617
 21
6.5333675482837199
 31
0.0
  0
LINE
  5
5421B
  8
0
 62
     0
 10
-20.634896582972409
 20
6.4670762875474823
 30
0.0
 11
-20.634896582972409
 21
6.4670762875474823
 31
0.0
  0
LINE
  5
5421C
  8
0
 62
     0
 10
-20.701187843708649
 20
6.400785026811243
 30
0.0
 11
-20.701187843708649
 21
6.400785026811243
 31
0.0
  0
LINE
  5
5421D
  8
0
 62
     0
 10
-20.767479104444892
 20
6.3344937660750054
 30
0.0
 11
-20.767479104444892
 21
6.3344937660750054
 31
0.0
  0
LINE
  5
5421E
  8
0
 62
     0
 10
-19.275925737879511
 20
7.9586296541128601
 30
0.0
 11
-19.275925737879511
 21
7.9586296541128601
 31
0.0
  0
LINE
  5
5421F
  8
0
 62
     0
 10
-18.7455956519896
 20
8.4889597400027732
 30
0.0
 11
-18.7455956519896
 21
8.4889597400027732
 31
0.0
  0
LINE
  5
54220
  8
0
 62
     0
 10
-18.811886912725839
 20
8.4226684792665338
 30
0.0
 11
-18.811886912725839
 21
8.4226684792665338
 31
0.0
  0
LINE
  5
54221
  8
0
 62
     0
 10
-18.878178173462079
 20
8.3563772185302945
 30
0.0
 11
-18.878178173462079
 21
8.3563772185302945
 31
0.0
  0
LINE
  5
54222
  8
0
 62
     0
 10
-18.944469434198322
 20
8.2900859577940551
 30
0.0
 11
-18.944469434198322
 21
8.2900859577940551
 31
0.0
  0
LINE
  5
54223
  8
0
 62
     0
 10
-19.010760694934561
 20
8.2237946970578157
 30
0.0
 11
-19.010760694934561
 21
8.2237946970578157
 31
0.0
  0
LINE
  5
54224
  8
0
 62
     0
 10
-19.0770519556708
 20
8.1575034363215764
 30
0.0
 11
-19.0770519556708
 21
8.1575034363215764
 31
0.0
  0
LINE
  5
54225
  8
0
 62
     0
 10
-19.14334321640704
 20
8.091212175585337
 30
0.0
 11
-19.14334321640704
 21
8.091212175585337
 31
0.0
  0
LINE
  5
54226
  8
0
 62
     0
 10
-19.34221699861574
 20
7.8923383933766136
 30
0.0
 11
-19.34221699861574
 21
7.8923383933766136
 31
0.0
  0
LINE
  5
54227
  8
0
 62
     0
 10
-19.408508259351979
 20
7.8260471326403751
 30
0.0
 11
-19.408508259351979
 21
7.8260471326403751
 31
0.0
  0
LINE
  5
54228
  8
0
 62
     0
 10
-19.474799520088219
 20
7.7597558719041366
 30
0.0
 11
-19.474799520088219
 21
7.7597558719041366
 31
0.0
  0
LINE
  5
54229
  8
0
 62
     0
 10
-19.541090780824462
 20
7.693464611167899
 30
0.0
 11
-19.541090780824462
 21
7.693464611167899
 31
0.0
  0
LINE
  5
5422A
  8
0
 62
     0
 10
-19.607382041560701
 20
7.6271733504316597
 30
0.0
 11
-19.607382041560701
 21
7.6271733504316597
 31
0.0
  0
LINE
  5
5422B
  8
0
 62
     0
 10
-19.67367330229694
 20
7.5608820896954221
 30
0.0
 11
-19.67367330229694
 21
7.5608820896954221
 31
0.0
  0
LINE
  5
5422C
  8
0
 62
     0
 10
-19.73996456303318
 20
7.4945908289591827
 30
0.0
 11
-19.73996456303318
 21
7.4945908289591827
 31
0.0
  0
LINE
  5
5422D
  8
0
 62
     0
 10
-19.806255823769419
 20
7.4282995682229451
 30
0.0
 11
-19.806255823769419
 21
7.4282995682229451
 31
0.0
  0
LINE
  5
5422E
  8
0
 62
     0
 10
-19.872547084505658
 20
7.3620083074867058
 30
0.0
 11
-19.872547084505658
 21
7.3620083074867058
 31
0.0
  0
LINE
  5
5422F
  8
0
 62
     0
 10
-19.938838345241901
 20
7.2957170467504682
 30
0.0
 11
-19.938838345241901
 21
7.2957170467504682
 31
0.0
  0
LINE
  5
54230
  8
0
 62
     0
 10
-20.005129605978141
 20
7.2294257860142288
 30
0.0
 11
-20.005129605978141
 21
7.2294257860142288
 31
0.0
  0
LINE
  5
54231
  8
0
 62
     0
 10
-20.07142086671438
 20
7.1631345252779912
 30
0.0
 11
-20.07142086671438
 21
7.1631345252779912
 31
0.0
  0
LINE
  5
54232
  8
0
 62
     0
 10
-20.137712127450619
 20
7.0968432645417519
 30
0.0
 11
-20.137712127450619
 21
7.0968432645417519
 31
0.0
  0
LINE
  5
54233
  8
0
 62
     0
 10
-20.204003388186852
 20
7.0305520038055143
 30
0.0
 11
-20.204003388186852
 21
7.0305520038055143
 31
0.0
  0
LINE
  5
54234
  8
0
 62
     0
 10
-20.270294648923102
 20
6.9642607430692749
 30
0.0
 11
-20.270294648923102
 21
6.9642607430692749
 31
0.0
  0
LINE
  5
54235
  8
0
 62
     0
 10
-20.33658590965933
 20
6.8979694823330373
 30
0.0
 11
-20.33658590965933
 21
6.8979694823330373
 31
0.0
  0
LINE
  5
54236
  8
0
 62
     0
 10
-20.40287717039557
 20
6.8316782215967979
 30
0.0
 11
-20.40287717039557
 21
6.8316782215967979
 31
0.0
  0
LINE
  5
54237
  8
0
 62
     0
 10
-20.469168431131809
 20
6.7653869608605604
 30
0.0
 11
-20.469168431131809
 21
6.7653869608605604
 31
0.0
  0
LINE
  5
54238
  8
0
 62
     0
 10
-20.535459691868049
 20
6.699095700124321
 30
0.0
 11
-20.535459691868049
 21
6.699095700124321
 31
0.0
  0
LINE
  5
54239
  8
0
 62
     0
 10
-20.601750952604291
 20
6.6328044393880834
 30
0.0
 11
-20.601750952604291
 21
6.6328044393880834
 31
0.0
  0
LINE
  5
5423A
  8
0
 62
     0
 10
-19.375362628983869
 20
7.9917752844809797
 30
0.0
 11
-19.375362628983869
 21
7.9917752844809797
 31
0.0
  0
LINE
  5
5423B
  8
0
 62
     0
 10
-18.845032543093961
 20
8.5221053703708947
 30
0.0
 11
-18.845032543093961
 21
8.5221053703708947
 31
0.0
  0
LINE
  5
5423C
  8
0
 62
     0
 10
-18.9113238038302
 20
8.4558141096346553
 30
0.0
 11
-18.9113238038302
 21
8.4558141096346553
 31
0.0
  0
LINE
  5
5423D
  8
0
 62
     0
 10
-18.977615064566429
 20
8.3895228488984142
 30
0.0
 11
-18.977615064566429
 21
8.3895228488984142
 31
0.0
  0
LINE
  5
5423E
  8
0
 62
     0
 10
-19.043906325302672
 20
8.3232315881621766
 30
0.0
 11
-19.043906325302672
 21
8.3232315881621766
 31
0.0
  0
LINE
  5
5423F
  8
0
 62
     0
 10
-19.110197586038911
 20
8.2569403274259372
 30
0.0
 11
-19.110197586038911
 21
8.2569403274259372
 31
0.0
  0
LINE
  5
54240
  8
0
 62
     0
 10
-19.17648884677515
 20
8.1906490666896978
 30
0.0
 11
-19.17648884677515
 21
8.1906490666896978
 31
0.0
  0
LINE
  5
54241
  8
0
 62
     0
 10
-19.24278010751139
 20
8.1243578059534585
 30
0.0
 11
-19.24278010751139
 21
8.1243578059534585
 31
0.0
  0
LINE
  5
54242
  8
0
 62
     0
 10
-19.441653889720101
 20
7.925484023744735
 30
0.0
 11
-19.441653889720101
 21
7.925484023744735
 31
0.0
  0
LINE
  5
54243
  8
0
 62
     0
 10
-19.50794515045634
 20
7.8591927630084966
 30
0.0
 11
-19.50794515045634
 21
7.8591927630084966
 31
0.0
  0
LINE
  5
54244
  8
0
 62
     0
 10
-19.57423641119258
 20
7.7929015022722581
 30
0.0
 11
-19.57423641119258
 21
7.7929015022722581
 31
0.0
  0
LINE
  5
54245
  8
0
 62
     0
 10
-19.640527671928819
 20
7.7266102415360196
 30
0.0
 11
-19.640527671928819
 21
7.7266102415360196
 31
0.0
  0
LINE
  5
54246
  8
0
 62
     0
 10
-19.706818932665058
 20
7.660318980799782
 30
0.0
 11
-19.706818932665058
 21
7.660318980799782
 31
0.0
  0
LINE
  5
54247
  8
0
 62
     0
 10
-19.773110193401291
 20
7.5940277200635427
 30
0.0
 11
-19.773110193401291
 21
7.5940277200635427
 31
0.0
  0
LINE
  5
54248
  8
0
 62
     0
 10
-19.839401454137541
 20
7.5277364593273051
 30
0.0
 11
-19.839401454137541
 21
7.5277364593273051
 31
0.0
  0
LINE
  5
54249
  8
0
 62
     0
 10
-19.905692714873769
 20
7.4614451985910657
 30
0.0
 11
-19.905692714873769
 21
7.4614451985910657
 31
0.0
  0
LINE
  5
5424A
  8
0
 62
     0
 10
-19.971983975610009
 20
7.3951539378548281
 30
0.0
 11
-19.971983975610009
 21
7.3951539378548281
 31
0.0
  0
LINE
  5
5424B
  8
0
 62
     0
 10
-20.038275236346259
 20
7.3288626771185887
 30
0.0
 11
-20.038275236346259
 21
7.3288626771185887
 31
0.0
  0
LINE
  5
5424C
  8
0
 62
     0
 10
-20.104566497082491
 20
7.2625714163823512
 30
0.0
 11
-20.104566497082491
 21
7.2625714163823512
 31
0.0
  0
LINE
  5
5424D
  8
0
 62
     0
 10
-20.170857757818741
 20
7.1962801556461118
 30
0.0
 11
-20.170857757818741
 21
7.1962801556461118
 31
0.0
  0
LINE
  5
5424E
  8
0
 62
     0
 10
-20.23714901855497
 20
7.1299888949098742
 30
0.0
 11
-20.23714901855497
 21
7.1299888949098742
 31
0.0
  0
LINE
  5
5424F
  8
0
 62
     0
 10
-20.303440279291209
 20
7.0636976341736348
 30
0.0
 11
-20.303440279291209
 21
7.0636976341736348
 31
0.0
  0
LINE
  5
54250
  8
0
 62
     0
 10
-20.369731540027448
 20
6.9974063734373972
 30
0.0
 11
-20.369731540027448
 21
6.9974063734373972
 31
0.0
  0
LINE
  5
54251
  8
0
 62
     0
 10
-20.436022800763691
 20
6.9311151127011579
 30
0.0
 11
-20.436022800763691
 21
6.9311151127011579
 31
0.0
  0
LINE
  5
54252
  8
0
 62
     0
 10
-19.474799520088229
 20
8.0249209148490959
 30
0.0
 11
-19.474799520088229
 21
8.0249209148490959
 31
0.0
  0
LINE
  5
54253
  8
0
 62
     0
 10
-18.878178173462079
 20
8.6215422614752537
 30
0.0
 11
-18.878178173462079
 21
8.6215422614752537
 31
0.0
  0
LINE
  5
54254
  8
0
 62
     0
 10
-18.944469434198322
 20
8.5552510007390143
 30
0.0
 11
-18.944469434198322
 21
8.5552510007390143
 31
0.0
  0
LINE
  5
54255
  8
0
 62
     0
 10
-19.010760694934561
 20
8.4889597400027732
 30
0.0
 11
-19.010760694934561
 21
8.4889597400027732
 31
0.0
  0
LINE
  5
54256
  8
0
 62
     0
 10
-19.0770519556708
 20
8.4226684792665356
 30
0.0
 11
-19.0770519556708
 21
8.4226684792665356
 31
0.0
  0
LINE
  5
54257
  8
0
 62
     0
 10
-19.143343216407029
 20
8.3563772185302962
 30
0.0
 11
-19.143343216407029
 21
8.3563772185302962
 31
0.0
  0
LINE
  5
54258
  8
0
 62
     0
 10
-19.209634477143268
 20
8.2900859577940569
 30
0.0
 11
-19.209634477143268
 21
8.2900859577940569
 31
0.0
  0
LINE
  5
54259
  8
0
 62
     0
 10
-19.275925737879511
 20
8.2237946970578175
 30
0.0
 11
-19.275925737879511
 21
8.2237946970578175
 31
0.0
  0
LINE
  5
5425A
  8
0
 62
     0
 10
-19.342216998615751
 20
8.1575034363215781
 30
0.0
 11
-19.342216998615751
 21
8.1575034363215781
 31
0.0
  0
LINE
  5
5425B
  8
0
 62
     0
 10
-19.541090780824462
 20
7.9586296541128547
 30
0.0
 11
-19.541090780824462
 21
7.9586296541128547
 31
0.0
  0
LINE
  5
5425C
  8
0
 62
     0
 10
-19.607382041560701
 20
7.8923383933766171
 30
0.0
 11
-19.607382041560701
 21
7.8923383933766171
 31
0.0
  0
LINE
  5
5425D
  8
0
 62
     0
 10
-19.67367330229694
 20
7.8260471326403778
 30
0.0
 11
-19.67367330229694
 21
7.8260471326403778
 31
0.0
  0
LINE
  5
5425E
  8
0
 62
     0
 10
-19.73996456303318
 20
7.7597558719041402
 30
0.0
 11
-19.73996456303318
 21
7.7597558719041402
 31
0.0
  0
LINE
  5
5425F
  8
0
 62
     0
 10
-19.806255823769419
 20
7.6934646111679008
 30
0.0
 11
-19.806255823769419
 21
7.6934646111679008
 31
0.0
  0
LINE
  5
54260
  8
0
 62
     0
 10
-19.872547084505658
 20
7.6271733504316632
 30
0.0
 11
-19.872547084505658
 21
7.6271733504316632
 31
0.0
  0
LINE
  5
54261
  8
0
 62
     0
 10
-19.938838345241901
 20
7.5608820896954239
 30
0.0
 11
-19.938838345241901
 21
7.5608820896954239
 31
0.0
  0
LINE
  5
54262
  8
0
 62
     0
 10
-20.005129605978141
 20
7.4945908289591863
 30
0.0
 11
-20.005129605978141
 21
7.4945908289591863
 31
0.0
  0
LINE
  5
54263
  8
0
 62
     0
 10
-20.07142086671438
 20
7.4282995682229469
 30
0.0
 11
-20.07142086671438
 21
7.4282995682229469
 31
0.0
  0
LINE
  5
54264
  8
0
 62
     0
 10
-20.137712127450619
 20
7.3620083074867093
 30
0.0
 11
-20.137712127450619
 21
7.3620083074867093
 31
0.0
  0
LINE
  5
54265
  8
0
 62
     0
 10
-20.204003388186859
 20
7.2957170467504699
 30
0.0
 11
-20.204003388186859
 21
7.2957170467504699
 31
0.0
  0
LINE
  5
54266
  8
0
 62
     0
 10
-19.57423641119259
 20
8.0580665452172191
 30
0.0
 11
-19.57423641119259
 21
8.0580665452172191
 31
0.0
  0
LINE
  5
54267
  8
0
 62
     0
 10
-19.17648884677515
 20
8.4558141096346571
 30
0.0
 11
-19.17648884677515
 21
8.4558141096346571
 31
0.0
  0
LINE
  5
54268
  8
0
 62
     0
 10
-19.24278010751139
 20
8.3895228488984177
 30
0.0
 11
-19.24278010751139
 21
8.3895228488984177
 31
0.0
  0
LINE
  5
54269
  8
0
 62
     0
 10
-19.309071368247629
 20
8.3232315881621783
 30
0.0
 11
-19.309071368247629
 21
8.3232315881621783
 31
0.0
  0
LINE
  5
5426A
  8
0
 62
     0
 10
-19.375362628983869
 20
8.2569403274259372
 30
0.0
 11
-19.375362628983869
 21
8.2569403274259372
 31
0.0
  0
LINE
  5
5426B
  8
0
 62
     0
 10
-19.640527671928819
 20
7.9917752844809788
 30
0.0
 11
-19.640527671928819
 21
7.9917752844809788
 31
0.0
  0
LINE
  5
5426C
  8
0
 62
     0
 10
-19.706818932665058
 20
7.9254840237447413
 30
0.0
 11
-19.706818932665058
 21
7.9254840237447413
 31
0.0
  0
LINE
  5
5426D
  8
0
 62
     0
 10
-19.773110193401301
 20
7.8591927630085019
 30
0.0
 11
-19.773110193401301
 21
7.8591927630085019
 31
0.0
  0
LINE
  5
5426E
  8
0
 62
     0
 10
-19.839401454137541
 20
7.7929015022722643
 30
0.0
 11
-19.839401454137541
 21
7.7929015022722643
 31
0.0
  0
LINE
  5
5426F
  8
0
 62
     0
 10
-19.90569271487378
 20
7.7266102415360249
 30
0.0
 11
-19.90569271487378
 21
7.7266102415360249
 31
0.0
  0
LINE
  5
54270
  8
0
 62
     0
 10
-19.971983975610019
 20
7.6603189807997873
 30
0.0
 11
-19.971983975610019
 21
7.6603189807997873
 31
0.0
  0
LINE
  5
54271
  8
0
 62
     0
 10
-20.038275236346259
 20
7.594027720063548
 30
0.0
 11
-20.038275236346259
 21
7.594027720063548
 31
0.0
  0
LINE
  5
54272
  8
0
 62
     0
 10
-19.607382041560701
 20
8.1575034363215781
 30
0.0
 11
-19.607382041560701
 21
8.1575034363215781
 31
0.0
  0
LINE
  5
54273
  8
0
 62
     0
 10
-19.67367330229694
 20
8.0912121755853388
 30
0.0
 11
-19.67367330229694
 21
8.0912121755853388
 31
0.0
  0
LINE
  5
54274
  8
0
 62
     0
 10
-19.73996456303318
 20
8.0249209148490976
 30
0.0
 11
-19.73996456303318
 21
8.0249209148490976
 31
0.0
  0
LINE
  5
54275
  8
0
 62
     0
 10
-19.806255823769419
 20
7.9586296541128592
 30
0.0
 11
-19.806255823769419
 21
7.9586296541128592
 31
0.0
  0
LINE
  5
54276
  8
0
 62
     0
 10
-19.872547084505658
 20
7.8923383933766198
 30
0.0
 11
-19.872547084505658
 21
7.8923383933766198
 31
0.0
  0
ENDBLK
  5
54278
  8
0
  0
BLOCK
  8
0
  2
*U16
 70
     1
 10
0.0
 20
0.0
 30
0.0
  3
*U16
  1

  0
TEXT
  5
5427A
  8
DIM
 10
-19.515666263076412
 20
17.31229454214586
 30
0.0
 40
0.375
  1
3 5/8"
  7
SMOOTH
  0
ENDBLK
  5
5427C
  8
0
  0
ENDSEC
  0
SECTION
  2
ENTITIES
  0
INSERT
  5
53107
  8
0
 66
     1
  2
TITLEBLOCK-2018
 10
-6.0493209687476552
 20
0.7804766198856173
 30
0.0
 41
0.8208
 42
0.8208
 43
0.8208
  0
ATTRIB
  5
53109
  8
TITLE2
 10
-12.65933405326652
 20
17.69319116137731
 30
0.0
 40
0.2993204568948501
  1
W3-H THIN BICK
 41
0.8005305039787987
  7
GGATT
  2
DWG1
 70
     0
  0
ATTRIB
  5
5310A
  8
TITLE2
 10
-12.65933405326652
 20
17.194323733219239
 30
0.0
 40
0.2993204568948501
  1
2 1/4" x 3 5/8"
 41
0.8005305039787987
  7
GGATT
  2
DWG2
 70
     0
  0
ATTRIB
  5
5310B
  8
TITLE2
 10
-12.65933405326652
 20
16.197274842934249
 30
0.0
 40
0.2993204568948531
  1

 41
0.8005305039787907
  7
GGATT
  2
PROJ1
 70
     0
  0
ATTRIB
  5
5310C
  8
TITLE2
 10
-12.65933405326652
 20
15.698407414776179
 30
0.0
 40
0.2993204568948531
  1

 41
0.8005305039787907
  7
GGATT
  2
PROJ2
 70
     0
  0
ATTRIB
  5
5310D
  8
TITLE2
 10
-11.99193674159196
 20
15.10562009436679
 30
0.0
 40
0.1995469712632459
  1
1 of 1
 41
0.8005305039787947
  7
GGATT
  2
PAGE
 70
     0
  0
ATTRIB
  5
5310E
  8
TITLE2
 10
-9.8632480844982542
 20
15.10562009436679
 30
0.0
 40
0.1995469712632459
  1
27 MAR 18
 41
0.8005305039787943
  7
GGATT
  2
DATE
 70
     0
  0
ATTRIB
  5
5310F
  8
TITLE2
 10
-11.350999249695199
 20
14.506979180577099
 30
0.0
 40
0.1995469712632474
  1

 41
0.8005305039787886
  7
GGATT
  2
ARCH
 70
     0
  0
ATTRIB
  5
53110
  8
TITLE2
 10
-11.350999249695199
 20
13.90833826678741
 30
0.0
 40
0.1995469712632474
  1

 41
0.8005305039787886
  7
GGATT
  2
CUST
 70
     0
  0
ATTRIB
  5
53111
  8
TITLE2
 10
-11.350999249695199
 20
13.30969735299769
 30
0.0
 40
0.1995469712632474
  1

 41
0.8005305039787886
  7
GGATT
  2
REP
 70
     0
  0
ATTRIB
  5
53112
  8
TITLE2
 10
-11.084760187240541
 20
12.711056439208001
 30
0.0
 40
0.1995469712632474
  1

 41
0.8005305039787886
  7
GGATT
  2
OFFICE
 70
     0
  0
ATTRIB
  5
53113
  8
TITLE2
 10
-11.65952929364979
 20
12.11241552541831
 30
0.0
 40
0.1995469712632474
  1

 41
0.8005305039787959
  7
GGATT
  2
PLANT
 70
     0
  0
ATTRIB
  5
53114
  8
TITLE2
 10
-12.52882181312134
 20
11.185044169486339
 30
0.0
 40
0.2988415441638037
  1

 41
0.800530503978797
  7
GGATT
  2
BRICK
 70
     0
  0
ATTRIB
  5
53115
  8
TITLE2
 10
-11.44366356323788
 20
10.6885331017991
 30
0.0
 40
0.1995469712632474
  1
EXTRUDED
 41
0.8005305039787963
  7
GGATT
  2
PROCESS
 70
     0
  0
ATTRIB
  5
53116
  8
TITLE2
 10
-9.8462291885099358
 20
10.6885331017991
 30
0.0
 40
0.1995469712632474
  1

 41
0.8005305039787959
  7
GGATT
  2
BURN
 70
     0
  0
ATTRIB
  5
53117
  8
TITLE2
 10
-11.65952929364979
 20
10.08989218800941
 30
0.0
 40
0.1995469712632474
  1
WIRE CUT
 41
0.8005305039787959
  7
GGATT
  2
TEXT
 70
     0
  0
ATTRIB
  5
53118
  8
TITLE2
 10
-10.06209491892186
 20
9.491251274219719
 30
0.0
 40
0.1995469712632489
  1
3
 41
0.8005305039787897
  7
GGATT
  2
FACE
 70
     0
  0
ATTRIB
  5
53119
  8
TITLE2
 10
-11.65952929364979
 20
8.2939694466403573
 30
0.0
 40
0.1995469712632482
  1
PLANT OPTION
 41
0.8005305039787929
  7
GGATT
  2
CORING
 70
     0
  0
ATTRIB
  5
5311A
  8
TITLE2
 10
-11.92576835610444
 20
7.6953285328506604
 30
0.0
 40
0.1995469712632482
  1
STD. MOD.
 41
0.8005305039787929
  7
GGATT
  2
SIZE
 70
     0
  0
ATTRIB
  5
5311B
  8
TITLE2
 10
-9.7958558564672096
 20
7.6953285328506604
 30
0.0
 40
0.1995469712632482
  1

 41
0.8005305039787929
  7
GGATT
  2
BOND
 70
     0
  0
ATTRIB
  5
5311C
  8
TITLE2
 10
-10.480506981067711
 20
7.0966876190609716
 30
0.0
 40
0.1995469712632458
  1
C216, TBS, SW
 41
0.8005305039787941
  7
GGATT
  2
ASTM
 70
     0
  0
ATTRIB
  5
5311D
  8
TITLE2
 10
-10.46770009933134
 20
6.4980467052712774
 30
0.0
 40
0.1995469712632459
  1
Y318JJJ6
 41
0.8005305039787943
  7
GGATT
  2
FILE
 70
     0
  0
ATTRIB
  5
5311E
  8
TITLE2
 10
-11.07405931263016
 20
5.8994057914815867
 30
0.0
 40
0.1995469712632459
  1
KEVIN LINDSTROM
 41
0.8005305039787947
  7
GGATT
  2
BY
 70
     0
  0
ATTRIB
  5
5311F
  8
TITLE2
 10
-10.61162929146958
 20
8.8678757883270904
 30
0.0
 40
0.1995469712632474
  1
PLANT OPTION
 41
0.8005305039787959
  7
GGATT
  2
TEXTURE
 70
     0
  0
SEQEND
  5
53108
  8
0
  0
TEXT
  5
532C5
  8
DIM
 10
-20.952663168575821
 20
9.5348721642811256
 30
0.0
 40
0.375
  1
1/8" x 1/2" NOTCH
  7
SMOOTH
 72
     1
 11
-18.76686153814104
 21
9.7223721642811256
 31
0.0
 73
     2
  0
TEXT
  5
532C6
  8
DIM
 10
-26.2784761300653
 20
4.3479144764275679
 30
0.0
 40
0.375
  1
1/8" x 1/2" NOTCH
  7
SMOOTH
 72
     1
 11
-24.092674499630519
 21
4.5354144764275679
 31
0.0
 73
     2
  0
INSERT
  5
532C7
  8
DIM
  2
*U6
 10
0.0
 20
0.0
 30
0.0
1001
ACAD
1000
DSTYLE
1002
{
1070
   147
1040
0.09375
1070
    77
1070
     0
1002
}
  0
INSERT
  5
532DD
  8
DIM
  2
*U7
 10
0.0
 20
0.0
 30
0.0
1001
ACAD
1000
DSTYLE
1002
{
1070
   147
1040
0.09375
1070
    77
1070
     0
1002
}
  0
LINE
  5
536B6
  8
OBJ
 10
-27.444187411598829
 20
4.0311313230300581
 30
0.0
 11
-27.444187411598829
 21
7.6561313230300581
 31
0.0
  0
LINE
  5
536B7
  8
OBJ
 10
-29.944187411598829
 20
4.0311313230300581
 30
0.0
 11
-27.444187411598829
 21
4.0311313230300581
 31
0.0
  0
LINE
  5
536B8
  8
OBJ
 10
-29.944187411598829
 20
7.6561313230300581
 30
0.0
 11
-29.944187411598829
 21
4.0311313230300581
 31
0.0
  0
LINE
  5
536B9
  8
OBJ
 10
-29.194187411598829
 20
7.6561313230300581
 30
0.0
 11
-29.194187411598829
 21
4.0311313230300581
 31
0.0
  0
LINE
  5
536BA
  8
OBJ
 10
-29.069187411598829
 20
7.6561313230300581
 30
0.0
 11
-29.069187411598829
 21
4.0311313230300581
 31
0.0
  0
LINE
  5
536BB
  8
OBJ
 10
-29.944187411598829
 20
7.6561313230300581
 30
0.0
 11
-27.444187411598829
 21
7.6561313230300581
 31
0.0
  0
LINE
  5
536BC
  8
OBJ
 10
-28.944187411598829
 20
7.6561313230300581
 30
0.0
 11
-28.944187411598829
 21
4.0311313230300581
 31
0.0
  0
LINE
  5
536BD
  8
DIM
 10
-27.444187411598829
 20
7.8436313230300581
 30
0.0
 11
-27.444187411598829
 21
9.2846047634262252
 31
0.0
  0
TEXT
  5
536BE
  8
DIM
 10
-26.863782778500621
 20
8.9171047634262273
 30
0.0
 40
0.375
  1
1 1/2"
  7
SMOOTH
 72
     1
 11
-26.19097367523975
 21
9.1046047634262273
 31
0.0
 73
     2
  0
SOLID
  5
536BF
  8
DIM
 10
-27.194187411598829
 20
9.1462714300928987
 30
0.0
 11
-27.194187411598829
 21
9.0629380967595612
 31
0.0
 12
-27.444187411598829
 22
9.1046047634262273
 32
0.0
 13
-27.444187411598829
 23
9.1046047634262273
 33
0.0
  0
SOLID
  5
536C0
  8
DIM
 10
-29.194187411598829
 20
9.1462714300928987
 30
0.0
 11
-29.194187411598829
 21
9.0629380967595612
 31
0.0
 12
-28.944187411598829
 22
9.1046047634262273
 32
0.0
 13
-28.944187411598829
 23
9.1046047634262273
 33
0.0
  0
LINE
  5
536C1
  8
DIM
 10
-27.194187411598829
 20
9.1046047634262273
 30
0.0
 11
-26.944187411598829
 21
9.1046047634262273
 31
0.0
  0
LINE
  5
536C2
  8
DIM
 10
-29.194187411598829
 20
9.1046047634262273
 30
0.0
 11
-29.444187411598829
 21
9.1046047634262273
 31
0.0
  0
LINE
  5
536C4
  8
DIM
 10
-28.944187411598829
 20
7.8436313230300581
 30
0.0
 11
-28.944187411598829
 21
9.8736069233107528
 31
0.0
  0
LINE
  5
536C5
  8
DIM
 10
-29.944187411598829
 20
7.8436313230300581
 30
0.0
 11
-29.944187411598829
 21
9.8736069233107528
 31
0.0
  0
LINE
  5
536C6
  8
DIM
 10
-28.694187411598829
 20
9.6936069233107531
 30
0.0
 11
-28.444187411598829
 21
9.6936069233107531
 31
0.0
  0
LINE
  5
536C7
  8
DIM
 10
-30.19418741159884
 20
9.6936069233107531
 30
0.0
 11
-30.444187411598829
 21
9.6936069233107531
 31
0.0
  0
SOLID
  5
536C8
  8
DIM
 10
-28.694187411598829
 20
9.7352735899774192
 30
0.0
 11
-28.694187411598829
 21
9.6519402566440871
 31
0.0
 12
-28.944187411598829
 22
9.6936069233107531
 32
0.0
 13
-28.944187411598829
 23
9.6936069233107531
 33
0.0
  0
SOLID
  5
536C9
  8
DIM
 10
-30.19418741159884
 20
9.7352735899774192
 30
0.0
 11
-30.19418741159884
 21
9.6519402566440871
 31
0.0
 12
-29.944187411598829
 22
9.6936069233107531
 32
0.0
 13
-29.944187411598829
 23
9.6936069233107531
 33
0.0
  0
INSERT
  5
536CA
  8
DIM
  2
*U8
 10
0.0
 20
0.0
 30
0.0
  0
LINE
  5
536D2
  8
DIM
 10
-30.131687411598829
 20
7.6561313230300581
 30
0.0
 11
-31.898378995964361
 21
7.6561313230300581
 31
0.0
  0
LINE
  5
536D3
  8
DIM
 10
-30.131687411598829
 20
4.0311313230300581
 30
0.0
 11
-31.898378995964361
 21
4.0311313230300589
 31
0.0
  0
LINE
  5
536D4
  8
DIM
 10
-31.718378995964361
 20
7.4061313230300581
 30
0.0
 11
-31.718378995964361
 21
6.2230956087443436
 31
0.0
  0
LINE
  5
536D5
  8
DIM
 10
-31.718378995964361
 20
4.2811313230300589
 30
0.0
 11
-31.718378995964361
 21
5.4641670373157734
 31
0.0
  0
SOLID
  5
536D6
  8
DIM
 10
-31.760045662631029
 20
7.4061313230300581
 30
0.0
 11
-31.67671232929769
 21
7.4061313230300581
 31
0.0
 12
-31.718378995964361
 22
7.6561313230300581
 32
0.0
 13
-31.718378995964361
 23
7.6561313230300581
 33
0.0
  0
SOLID
  5
536D7
  8
DIM
 10
-31.760045662631029
 20
4.2811313230300589
 30
0.0
 11
-31.67671232929769
 21
4.2811313230300589
 31
0.0
 12
-31.718378995964361
 22
4.0311313230300589
 32
0.0
 13
-31.718378995964361
 23
4.0311313230300589
 33
0.0
  0
INSERT
  5
536D8
  8
DIM
  2
*U9
 10
0.0
 20
0.0
 30
0.0
  0
LINE
  5
536D9
  8
DIM
 10
-29.194187411598829
 20
7.8436313230300581
 30
0.0
 11
-29.194187411598829
 21
8.6627622315090616
 31
0.0
  0
LINE
  5
536DB
  8
DIM
 10
-28.944187411598829
 20
8.4827622315090618
 30
0.0
 11
-28.694187411598829
 21
8.4827622315090618
 31
0.0
  0
LINE
  5
536DC
  8
DIM
 10
-30.19418741159884
 20
8.4827622315090618
 30
0.0
 11
-30.444187411598829
 21
8.4827622315090618
 31
0.0
  0
SOLID
  5
536DD
  8
DIM
 10
-28.944187411598829
 20
8.5244288981757297
 30
0.0
 11
-28.944187411598829
 21
8.4410955648423922
 31
0.0
 12
-29.194187411598829
 22
8.4827622315090618
 32
0.0
 13
-29.194187411598829
 23
8.4827622315090618
 33
0.0
  0
SOLID
  5
536DE
  8
DIM
 10
-30.19418741159884
 20
8.5244288981757297
 30
0.0
 11
-30.19418741159884
 21
8.4410955648423922
 31
0.0
 12
-29.944187411598829
 22
8.4827622315090618
 32
0.0
 13
-29.944187411598829
 23
8.4827622315090618
 33
0.0
  0
INSERT
  5
536DF
  8
DIM
  2
*U10
 10
0.0
 20
0.0
 30
0.0
  0
LINE
  5
536E0
  8
OBJ
 10
-28.944187411598829
 20
16.047999143527569
 30
0.0
 11
-29.069187411598829
 21
16.047999143527569
 31
0.0
  0
LINE
  5
536E1
  8
OBJ
 10
-29.194187411598829
 20
16.047999143527569
 30
0.0
 11
-29.944187411598829
 21
16.047999143527569
 31
0.0
  0
LINE
  5
536E2
  8
OBJ
 10
-29.069187411598829
 20
15.547999143527569
 30
0.0
 11
-29.194187411598829
 21
15.547999143527569
 31
0.0
  0
LINE
  5
536E3
  8
OBJ
 10
-29.944187411598829
 20
16.047999143527569
 30
0.0
 11
-29.944187411598829
 21
13.797999143527569
 31
0.0
  0
LINE
  5
536E4
  8
OBJ
 10
-29.194187411598829
 20
16.047999143527569
 30
0.0
 11
-29.194187411598829
 21
15.547999143527569
 31
0.0
  0
LINE
  5
536E5
  8
OBJ
 10
-29.069187411598829
 20
16.047999143527569
 30
0.0
 11
-29.069187411598829
 21
15.547999143527569
 31
0.0
  0
LINE
  5
536E6
  8
OBJ
 10
-29.944187411598829
 20
13.797999143527569
 30
0.0
 11
-27.444187411598829
 21
13.797999143527569
 31
0.0
  0
LINE
  5
536E7
  8
OBJ
 10
-27.444187411598829
 20
13.797999143527569
 30
0.0
 11
-27.444187411598829
 21
14.547999143527569
 31
0.0
  0
LINE
  5
536E8
  8
OBJ
 10
-27.444187411598829
 20
14.547999143527569
 30
0.0
 11
-28.944187411598829
 21
16.047999143527569
 31
0.0
  0
LINE
  5
536E9
  8
DIM
 10
-30.131687411598829
 20
16.047999143527569
 30
0.0
 11
-31.91696803785781
 21
16.047999143527569
 31
0.0
  0
LINE
  5
536EA
  8
DIM
 10
-30.131687411598829
 20
13.797999143527569
 30
0.0
 11
-31.91696803785781
 21
13.797999143527569
 31
0.0
  0
LINE
  5
536EB
  8
DIM
 10
-31.73696803785781
 20
15.797999143527569
 30
0.0
 11
-31.73696803785781
 21
15.200499143527569
 31
0.0
  0
LINE
  5
536EC
  8
DIM
 10
-31.73696803785781
 20
14.047999143527569
 30
0.0
 11
-31.73696803785781
 21
14.64549914352758
 31
0.0
  0
SOLID
  5
536ED
  8
DIM
 10
-31.778634704524482
 20
15.797999143527569
 30
0.0
 11
-31.695301371191139
 21
15.797999143527569
 31
0.0
 12
-31.73696803785781
 22
16.047999143527569
 32
0.0
 13
-31.73696803785781
 23
16.047999143527569
 33
0.0
  0
SOLID
  5
536EE
  8
DIM
 10
-31.778634704524482
 20
14.047999143527569
 30
0.0
 11
-31.695301371191139
 21
14.047999143527569
 31
0.0
 12
-31.73696803785781
 22
13.797999143527569
 32
0.0
 13
-31.73696803785781
 23
13.797999143527569
 33
0.0
  0
TEXT
  5
536EF
  8
DIM
 10
-32.409777141118667
 20
14.735499143527569
 30
0.0
 40
0.375
  1
2 1/4"
  7
SMOOTH
 72
     1
 11
-31.73696803785781
 21
14.922999143527569
 31
0.0
 73
     2
  0
LINE
  5
536F0
  8
DIM
 10
-27.256687411598829
 20
13.797999143527569
 30
0.0
 11
-25.942359907478671
 21
13.797999143527569
 31
0.0
  0
LINE
  5
536F1
  8
DIM
 10
-26.122359907478671
 20
13.547999143527569
 30
0.0
 11
-26.122359907478671
 21
13.297999143527569
 31
0.0
  0
LINE
  5
536F2
  8
DIM
 10
-26.122359907478671
 20
13.297999143527569
 30
0.0
 11
-25.872359907478671
 21
13.297999143527569
 31
0.0
  0
SOLID
  5
536F3
  8
DIM
 10
-26.164026574145328
 20
13.547999143527569
 30
0.0
 11
-26.080693240812
 21
13.547999143527569
 31
0.0
 12
-26.122359907478671
 22
13.797999143527569
 32
0.0
 13
-26.122359907478671
 23
13.797999143527569
 33
0.0
  0
TEXT
  5
536F4
  8
DIM
 10
-25.774069495973212
 20
13.110499143527569
 30
0.0
 40
0.375
  1
3/4"
  7
SMOOTH
 72
     1
 11
-25.318821534016688
 21
13.297999143527569
 31
0.0
 73
     2
  0
LINE
  5
536F6
  8
DIM
 10
-27.44418741159884
 20
14.81316418647253
 30
0.0
 11
-27.444187411598829
 21
17.669526822580028
 31
0.0
  0
LINE
  5
536F7
  8
DIM
 10
-29.194187411598829
 20
17.489526822580029
 30
0.0
 11
-29.444187411598829
 21
17.489526822580029
 31
0.0
  0
LINE
  5
536F8
  8
DIM
 10
-27.194187411598829
 20
17.489526822580029
 30
0.0
 11
-26.944187411598829
 21
17.489526822580029
 31
0.0
  0
SOLID
  5
536F9
  8
DIM
 10
-29.194187411598829
 20
17.5311934892467
 30
0.0
 11
-29.194187411598829
 21
17.447860155913361
 31
0.0
 12
-28.944187411598829
 22
17.489526822580029
 32
0.0
 13
-28.944187411598829
 23
17.489526822580029
 33
0.0
  0
SOLID
  5
536FA
  8
DIM
 10
-27.194187411598829
 20
17.5311934892467
 30
0.0
 11
-27.194187411598829
 21
17.447860155913361
 31
0.0
 12
-27.444187411598829
 22
17.489526822580029
 32
0.0
 13
-27.444187411598829
 23
17.489526822580029
 33
0.0
  0
TEXT
  5
536FB
  8
DIM
 10
-26.836402509978281
 20
17.324454271736599
 30
0.0
 40
0.375
  1
1 1/2"
  7
SMOOTH
 72
     1
 11
-26.163593406717411
 21
17.511954271736599
 31
0.0
 73
     2
  0
LINE
  5
536FC
  8
DIM
 10
-27.256687411598829
 20
14.547999143527569
 30
0.0
 11
-25.942359907478671
 21
14.547999143527569
 31
0.0
  0
LINE
  5
536FD
  8
DIM
 10
-28.679022368653879
 20
16.047999143527569
 30
0.0
 11
-25.942359907478671
 21
16.047999143527569
 31
0.0
  0
LINE
  5
536FE
  8
DIM
 10
-26.122359907478671
 20
14.797999143527569
 30
0.0
 11
-26.122359907478671
 21
15.020499143527569
 31
0.0
  0
LINE
  5
536FF
  8
DIM
 10
-26.122359907478671
 20
15.797999143527569
 30
0.0
 11
-26.122359907478671
 21
15.575499143527569
 31
0.0
  0
SOLID
  5
53700
  8
DIM
 10
-26.164026574145328
 20
14.797999143527569
 30
0.0
 11
-26.080693240812
 21
14.797999143527569
 31
0.0
 12
-26.122359907478671
 22
14.547999143527569
 32
0.0
 13
-26.122359907478671
 23
14.547999143527569
 33
0.0
  0
SOLID
  5
53701
  8
DIM
 10
-26.164026574145328
 20
15.797999143527569
 30
0.0
 11
-26.080693240812
 21
15.797999143527569
 31
0.0
 12
-26.122359907478671
 22
16.047999143527569
 32
0.0
 13
-26.122359907478671
 23
16.047999143527569
 33
0.0
  0
TEXT
  5
53702
  8
DIM
 10
-26.795169010739539
 20
15.110499143527569
 30
0.0
 40
0.375
  1
1 1/2"
  7
SMOOTH
 72
     1
 11
-26.122359907478671
 21
15.297999143527569
 31
0.0
 73
     2
  0
LINE
  5
53703
  8
DIM
 10
-28.944187411598829
 20
16.235499143527569
 30
0.0
 11
-28.944187411598829
 21
18.312987867413572
 31
0.0
  0
LINE
  5
53704
  8
DIM
 10
-29.94418741159884
 20
16.235499143527569
 30
0.0
 11
-29.944187411598829
 21
18.312987867413572
 31
0.0
  0
LINE
  5
53705
  8
DIM
 10
-28.694187411598829
 20
18.132987867413568
 30
0.0
 11
-28.444187411598829
 21
18.132987867413568
 31
0.0
  0
LINE
  5
53706
  8
DIM
 10
-30.19418741159884
 20
18.132987867413568
 30
0.0
 11
-30.444187411598829
 21
18.132987867413568
 31
0.0
  0
SOLID
  5
53707
  8
DIM
 10
-28.694187411598829
 20
18.17465453408024
 30
0.0
 11
-28.694187411598829
 21
18.091321200746901
 31
0.0
 12
-28.944187411598829
 22
18.132987867413568
 32
0.0
 13
-28.944187411598829
 23
18.132987867413568
 33
0.0
  0
SOLID
  5
53708
  8
DIM
 10
-30.19418741159884
 20
18.17465453408024
 30
0.0
 11
-30.19418741159884
 21
18.091321200746901
 31
0.0
 12
-29.944187411598829
 22
18.132987867413568
 32
0.0
 13
-29.944187411598829
 23
18.132987867413568
 33
0.0
  0
INSERT
  5
53709
  8
DIM
  2
*U11
 10
0.0
 20
0.0
 30
0.0
  0
LINE
  5
53712
  8
DIM
 10
-29.194187411598829
 20
16.235499143527569
 30
0.0
 11
-29.194187411598829
 21
16.93870793924545
 31
0.0
  0
LINE
  5
53714
  8
DIM
 10
-28.944187411598829
 20
16.75870793924544
 30
0.0
 11
-28.694187411598829
 21
16.75870793924544
 31
0.0
  0
LINE
  5
53715
  8
DIM
 10
-30.19418741159884
 20
16.75870793924544
 30
0.0
 11
-30.444187411598829
 21
16.75870793924544
 31
0.0
  0
SOLID
  5
53716
  8
DIM
 10
-28.944187411598829
 20
16.800374605912111
 30
0.0
 11
-28.944187411598829
 21
16.717041272578779
 31
0.0
 12
-29.194187411598829
 22
16.75870793924544
 32
0.0
 13
-29.194187411598829
 23
16.75870793924544
 33
0.0
  0
SOLID
  5
53717
  8
DIM
 10
-30.19418741159884
 20
16.800374605912111
 30
0.0
 11
-30.19418741159884
 21
16.717041272578779
 31
0.0
 12
-29.944187411598829
 22
16.75870793924544
 32
0.0
 13
-29.944187411598829
 23
16.75870793924544
 33
0.0
  0
INSERT
  5
53718
  8
DIM
  2
*U12
 10
0.0
 20
0.0
 30
0.0
  0
LINE
  5
5371A
  8
OBJ
 10
-20.663891466880749
 20
13.797999143527569
 30
0.0
 11
-17.038891466880749
 21
13.797999143527569
 31
0.0
  0
LINE
  5
5371B
  8
OBJ
 10
-20.663891466880749
 20
16.047999143527569
 30
0.0
 11
-20.663891466880749
 21
13.797999143527569
 31
0.0
  0
LINE
  5
5371C
  8
OBJ
 10
-17.038891466880749
 20
16.047999143527569
 30
0.0
 11
-20.663891466880749
 21
16.047999143527569
 31
0.0
  0
LINE
  5
5371D
  8
OBJ
 10
-17.038891466880749
 20
16.047999143527569
 30
0.0
 11
-17.038891466880749
 21
13.797999143527569
 31
0.0
  0
LINE
  5
5371E
  8
OBJ
 10
-20.663891466880749
 20
14.547999143527569
 30
0.0
 11
-17.038891466880749
 21
14.547999143527569
 31
0.0
  0
LINE
  5
5371F
  8
DIM
 10
-16.851391466880749
 20
16.047999143527569
 30
0.0
 11
-15.537063962760589
 21
16.047999143527569
 31
0.0
  0
LINE
  5
53720
  8
DIM
 10
-20.851391466880759
 20
16.047999143527569
 30
0.0
 11
-22.265904853939372
 21
16.047999143527569
 31
0.0
  0
LINE
  5
53721
  8
DIM
 10
-20.851391466880759
 20
13.797999143527569
 30
0.0
 11
-22.265904853939372
 21
13.797999143527569
 31
0.0
  0
LINE
  5
53722
  8
DIM
 10
-22.085904853939368
 20
15.797999143527569
 30
0.0
 11
-22.085904853939368
 21
15.200499143527569
 31
0.0
  0
LINE
  5
53723
  8
DIM
 10
-22.085904853939368
 20
14.047999143527569
 30
0.0
 11
-22.085904853939368
 21
14.64549914352758
 31
0.0
  0
SOLID
  5
53724
  8
DIM
 10
-22.127571520606029
 20
15.797999143527569
 30
0.0
 11
-22.044238187272711
 21
15.797999143527569
 31
0.0
 12
-22.085904853939368
 22
16.047999143527569
 32
0.0
 13
-22.085904853939368
 23
16.047999143527569
 33
0.0
  0
SOLID
  5
53725
  8
DIM
 10
-22.127571520606029
 20
14.047999143527569
 30
0.0
 11
-22.044238187272711
 21
14.047999143527569
 31
0.0
 12
-22.085904853939368
 22
13.797999143527569
 32
0.0
 13
-22.085904853939368
 23
13.797999143527569
 33
0.0
  0
TEXT
  5
53726
  8
DIM
 10
-22.758713957200239
 20
14.735499143527569
 30
0.0
 40
0.375
  1
2 1/4"
  7
SMOOTH
 72
     1
 11
-22.085904853939368
 21
14.922999143527569
 31
0.0
 73
     2
  0
TEXT
  5
53727
  8
DIM
 10
-16.389873066021462
 20
15.110499143527569
 30
0.0
 40
0.375
  1
1 1/2"
  7
SMOOTH
 72
     1
 11
-15.717063962760591
 21
15.297999143527569
 31
0.0
 73
     2
  0
SOLID
  5
53728
  8
DIM
 10
-15.75873062942726
 20
15.797999143527569
 30
0.0
 11
-15.675397296093919
 21
15.797999143527569
 31
0.0
 12
-15.717063962760591
 22
16.047999143527569
 32
0.0
 13
-15.717063962760591
 23
16.047999143527569
 33
0.0
  0
SOLID
  5
53729
  8
DIM
 10
-15.75873062942726
 20
14.797999143527569
 30
0.0
 11
-15.675397296093919
 21
14.797999143527569
 31
0.0
 12
-15.717063962760591
 22
14.547999143527569
 32
0.0
 13
-15.717063962760591
 23
14.547999143527569
 33
0.0
  0
LINE
  5
5372A
  8
DIM
 10
-15.717063962760591
 20
15.797999143527569
 30
0.0
 11
-15.717063962760591
 21
15.575499143527569
 31
0.0
  0
LINE
  5
5372B
  8
DIM
 10
-15.717063962760591
 20
14.797999143527569
 30
0.0
 11
-15.717063962760591
 21
15.020499143527569
 31
0.0
  0
LINE
  5
5372C
  8
DIM
 10
-16.851391466880749
 20
14.547999143527569
 30
0.0
 11
-15.537063962760589
 21
14.547999143527569
 31
0.0
  0
TEXT
  5
5372D
  8
DIM
 10
-15.23409763900283
 20
13.110499143527569
 30
0.0
 40
0.375
  1
3/4"
  7
SMOOTH
 72
     1
 11
-14.77884967704631
 21
13.297999143527569
 31
0.0
 73
     2
  0
SOLID
  5
5372E
  8
DIM
 10
-15.75873062942726
 20
13.547999143527569
 30
0.0
 11
-15.675397296093919
 21
13.547999143527569
 31
0.0
 12
-15.717063962760591
 22
13.797999143527569
 32
0.0
 13
-15.717063962760591
 23
13.797999143527569
 33
0.0
  0
LINE
  5
5372F
  8
DIM
 10
-15.717063962760591
 20
13.297999143527569
 30
0.0
 11
-15.467063962760591
 21
13.297999143527569
 31
0.0
  0
LINE
  5
53730
  8
DIM
 10
-15.717063962760591
 20
13.547999143527569
 30
0.0
 11
-15.717063962760591
 21
13.297999143527569
 31
0.0
  0
LINE
  5
53731
  8
DIM
 10
-16.851391466880749
 20
13.797999143527569
 30
0.0
 11
-15.537063962760589
 21
13.797999143527569
 31
0.0
  0
LINE
  5
53739
  8
DIM
 10
-29.944187411598829
 20
13.610499143527569
 30
0.0
 11
-29.944187411598829
 21
12.41568548543432
 31
0.0
  0
LINE
  5
5373A
  8
DIM
 10
-27.444187411598829
 20
13.610499143527569
 30
0.0
 11
-27.444187411598829
 21
12.41568548543432
 31
0.0
  0
LINE
  5
5373B
  8
DIM
 10
-29.694187411598829
 20
12.59568548543432
 30
0.0
 11
-29.498917370837962
 21
12.59568548543432
 31
0.0
  0
LINE
  5
5373C
  8
DIM
 10
-27.69418741159884
 20
12.59568548543432
 30
0.0
 11
-27.889457452359711
 21
12.59568548543432
 31
0.0
  0
SOLID
  5
5373D
  8
DIM
 10
-29.694187411598829
 20
12.637352152100989
 30
0.0
 11
-29.694187411598829
 21
12.554018818767659
 31
0.0
 12
-29.944187411598829
 22
12.59568548543432
 32
0.0
 13
-29.944187411598829
 23
12.59568548543432
 33
0.0
  0
SOLID
  5
5373E
  8
DIM
 10
-27.69418741159884
 20
12.637352152100989
 30
0.0
 11
-27.69418741159884
 21
12.554018818767659
 31
0.0
 12
-27.444187411598829
 22
12.59568548543432
 32
0.0
 13
-27.444187411598829
 23
12.59568548543432
 33
0.0
  0
INSERT
  5
5373F
  8
DIM
  2
*U13
 10
0.0
 20
0.0
 30
0.0
  0
LINE
  5
53740
  8
DIM
 10
-29.944187411598829
 20
3.8436313230300589
 30
0.0
 11
-29.944187411598829
 21
2.6488176649368071
 31
0.0
  0
LINE
  5
53741
  8
DIM
 10
-27.444187411598829
 20
3.8436313230300589
 30
0.0
 11
-27.444187411598829
 21
2.6488176649368071
 31
0.0
  0
LINE
  5
53742
  8
DIM
 10
-29.694187411598829
 20
2.828817664936806
 30
0.0
 11
-29.498917370837962
 21
2.828817664936806
 31
0.0
  0
LINE
  5
53743
  8
DIM
 10
-27.69418741159884
 20
2.828817664936806
 30
0.0
 11
-27.889457452359711
 21
2.828817664936806
 31
0.0
  0
SOLID
  5
53744
  8
DIM
 10
-29.694187411598829
 20
2.8704843316034721
 30
0.0
 11
-29.694187411598829
 21
2.7871509982701399
 31
0.0
 12
-29.944187411598829
 22
2.828817664936806
 32
0.0
 13
-29.944187411598829
 23
2.828817664936806
 33
0.0
  0
SOLID
  5
53745
  8
DIM
 10
-27.69418741159884
 20
2.8704843316034721
 30
0.0
 11
-27.69418741159884
 21
2.7871509982701399
 31
0.0
 12
-27.444187411598829
 22
2.828817664936806
 32
0.0
 13
-27.444187411598829
 23
2.828817664936806
 33
0.0
  0
INSERT
  5
53746
  8
DIM
  2
*U14
 10
0.0
 20
0.0
 30
0.0
  0
INSERT
  5
53753
  8
OBJ
  6
CONTINUOUS
  2
*X15
 10
0.0
 20
0.0
 30
0.0
1001
ACAD
1000
HATCH
1002
{
1070
    19
1000
DOTS
1040
1.5
1040
0.7853981633974483
1000
R14_HATCH_DATA
1000
53753
1011
1.0
1021
0.0
1031
0.0
1021
0.0
1031
0.0
1011
0.0
1021
0.0
1031
0.0
1021
1.0
1031
0.0
1011
0.0
1021
0.0
1031
0.0
1021
0.0
1031
1.0
1040
0.0
1010
0.0
1020
0.0
1030
1.0
1000
DOTS
1070
     0
1070
     0
1071
        4
1071
        7
1070
     0
1070
     1
1071
        4
1040
-21.046362497569771
1040
5.8788056609942743
1040
-21.046362497569771
1040
5.1288056609942743
1040
-17.907020408851182
1040
3.3163056609942609
1040
-17.907020408851189
1040
4.0663056609942734
1071
        0
1071
        7
1070
     0
1070
     1
1071
        4
1040
-16.607982303174531
1040
6.316305660994276
1040
-19.74732439189312
1040
8.1288056609942796
1040
-21.046362497569781
1040
5.8788056609942752
1040
-17.907020408851182
1040
4.0663056609942716
1071
        0
1071
        7
1070
     0
1070
     1
1071
        4
1040
-19.639071216420071
1040
8.1913056609942743
1040
-19.74732439189312
1040
8.1288056609942796
1040
-16.607982303174531
1040
6.3163056609942769
1040
-16.499729127701482
1040
6.3788056609942716
1071
        0
1071
        7
1070
     0
1070
     1
1071
        4
1040
-18.881298988108671
1040
8.6288056609942796
1040
-19.530818040947011
1040
8.253805660994276
1040
-16.391475952228419
1040
6.4413056609942716
1040
-15.741956899390081
1040
6.8163056609942716
1071
        0
1070
     0
1070
     1
1040
0.7853981633974483
1040
1.5
1070
     0
1070
     1
1040
0.7853981633974483
1040
1.7715495458763111
1040
-0.824962393438783
1040
-0.0331456303681194
1040
0.0994368911043583
1070
     2
1040
0.0
1040
-0.09375
1040
0.0091833860411466
1071
        4
1040
-18.847137685171258
1040
4.2580582107202547
1040
0.0
1040
-18.40607144180893
1040
4.9008952062553179
1040
0.0
1040
-17.00936149580966
1040
6.6090050486674183
1040
0.0
1040
-16.733695105664012
1040
6.875323211640894
1040
0.0
1002
}
  0
LINE
  5
53754
  8
OBJ
 10
-15.74195689939009
 20
6.8163056609942716
 30
0.0
 11
-16.391475952228419
 21
6.4413056609942716
 31
0.0
  0
LINE
  5
53755
  8
OBJ
 10
-16.499729127701482
 20
6.3788056609942716
 30
0.0
 11
-16.607982303174531
 21
6.316305660994276
 31
0.0
  0
LINE
  5
53756
  8
OBJ
 10
-16.607982303174531
 20
6.316305660994276
 30
0.0
 11
-19.747324391893109
 21
8.1288056609942778
 31
0.0
  0
LINE
  5
53757
  8
OBJ
 10
-19.747324391893109
 20
8.1288056609942778
 30
0.0
 11
-19.639071216420071
 21
8.1913056609942743
 31
0.0
  0
LINE
  5
53758
  8
OBJ
 10
-19.530818040947011
 20
8.253805660994276
 30
0.0
 11
-18.881298988108671
 21
8.6288056609942796
 31
0.0
  0
LINE
  5
53759
  8
OBJ
 10
-18.881298988108661
 20
8.6288056609942778
 30
0.0
 11
-15.74195689939009
 21
6.8163056609942716
 31
0.0
  0
LINE
  5
5375A
  8
OBJ
 10
-15.74195689939009
 20
6.8163056609942716
 30
0.0
 11
-15.74195689939009
 21
4.5663056609942716
 31
0.0
  0
LINE
  5
5375B
  8
OBJ
 10
-15.74195689939009
 20
4.5663056609942743
 30
0.0
 11
-17.907020408851182
 21
3.316305660994272
 31
0.0
  0
LINE
  5
5375C
  8
OBJ
 10
-17.907020408851182
 20
3.316305660994272
 30
0.0
 11
-17.907020408851182
 21
4.0663056609942716
 31
0.0
  0
LINE
  5
5375D
  8
OBJ
 10
-17.907020408851182
 20
4.0663056609942716
 30
0.0
 11
-21.046362497569771
 21
5.8788056609942752
 31
0.0
  0
LINE
  5
5375E
  8
OBJ
 10
-21.046362497569771
 20
5.8788056609942752
 30
0.0
 11
-21.046362497569771
 21
5.1288056609942752
 31
0.0
  0
LINE
  5
5375F
  8
OBJ
 10
-21.046362497569771
 20
5.1288056609942752
 30
0.0
 11
-17.907020408851199
 21
3.3163056609942689
 31
0.0
  0
LINE
  5
53760
  8
OBJ
 10
-17.907020408851182
 20
4.0663056609942716
 30
0.0
 11
-16.607982303174531
 21
6.316305660994276
 31
0.0
  0
LINE
  5
53761
  8
OBJ
 10
-21.046362497569771
 20
5.8788056609942752
 30
0.0
 11
-19.747324391893109
 21
8.1288056609942778
 31
0.0
  0
LINE
  5
53762
  8
OBJ
 10
-16.391475952228419
 20
6.4413056609942716
 30
0.0
 11
-16.391475952228419
 21
5.9413056609942698
 31
0.0
  0
LINE
  5
53763
  8
OBJ
 10
-16.499729127701482
 20
6.3788056609942716
 30
0.0
 11
-16.499729127701482
 21
5.8788056609942698
 31
0.0
  0
LINE
  5
53764
  8
OBJ
 10
-16.391475952228419
 20
5.9413056609942734
 30
0.0
 11
-16.499729127701482
 21
5.8788056609942698
 31
0.0
  0
LINE
  5
53765
  8
OBJ
 10
-16.499729127701482
 20
6.3788056609942698
 30
0.0
 11
-19.639071216420071
 21
8.1913056609942725
 31
0.0
  0
LINE
  5
53766
  8
OBJ
 10
-16.391475952228419
 20
6.4413056609942716
 30
0.0
 11
-19.530818040947011
 21
8.2538056609942743
 31
0.0
  0
LINE
  5
53767
  8
OBJ
 10
-16.391475952228419
 20
5.9413056609942734
 30
0.0
 11
-16.499729127701482
 21
6.0038056609942716
 31
0.0
  0
LINE
  5
53768
  8
OBJ
 10
-19.530818040947011
 20
8.2538056609942743
 30
0.0
 11
-19.530818040947011
 21
8.1288056609942707
 31
0.0
  0
LINE
  5
5399E
  8
DIM
 10
-20.663891466880749
 20
16.235499143527569
 30
0.0
 11
-20.663891466880749
 21
17.674954188884989
 31
0.0
  0
LINE
  5
5399F
  8
DIM
 10
-17.038891466880749
 20
16.235499143527569
 30
0.0
 11
-17.038891466880749
 21
17.674954188884989
 31
0.0
  0
LINE
  5
539A0
  8
DIM
 10
-20.413891466880759
 20
17.494954188884989
 30
0.0
 11
-19.65408338264163
 21
17.494954188884989
 31
0.0
  0
LINE
  5
539A1
  8
DIM
 10
-17.288891466880749
 20
17.494954188884989
 30
0.0
 11
-18.048699551119881
 21
17.494954188884989
 31
0.0
  0
SOLID
  5
539A2
  8
DIM
 10
-20.413891466880759
 20
17.536620855551661
 30
0.0
 11
-20.413891466880759
 21
17.453287522218329
 31
0.0
 12
-20.663891466880749
 22
17.494954188884989
 32
0.0
 13
-20.663891466880749
 23
17.494954188884989
 33
0.0
  0
SOLID
  5
539A3
  8
DIM
 10
-17.288891466880749
 20
17.536620855551661
 30
0.0
 11
-17.288891466880749
 21
17.453287522218329
 31
0.0
 12
-17.038891466880749
 22
17.494954188884989
 32
0.0
 13
-17.038891466880749
 23
17.494954188884989
 33
0.0
  0
INSERT
  5
539A4
  8
DIM
  2
*U16
 10
0.0
 20
0.0
 30
0.0
  0
ENDSEC
  0
EOF
